Song name
# A B C D E F G H I J K L M N O P Q R S T U V W X Y Z

Sodom - Blasphemer tab

Riff 1

E -----------------------------------------------------------------------|
B -----------------------------------------------------------------------|
G------------------------------------------------------------------------|
D -----------------------------------------------------------2-----------|
A ---------------------------------------------------------3---3-2-------|
E -777-7-777-7-777-7-777-7-777-7-777-7-777-7-777-0-3-2-3-0---------3-/7--|
Riff 1A

E ------------------------------------------------------------------------|
B ------------------------------------------------------------------------|
G-------------------------------------------------------------------------|
D-------------------------------------------------------------------------|
A ------------------------------------------------------------------------|
E -777-7-777-7-777-7-777-7-777-7-777-7-777-7-777-777-777-777-777-777-777--|

E -------------------------------|
B -------------------------------|
G -------------------------------|
D -----------------------------2-|
A -----------------------------2-|
E -000-000-000-000-000-000-000-0-|

Riff 2

E -----------------------------|
B -----------------------------|
G -----------------------------|
D -2-2-2-2-2-2-2-2-5-5---3-3---|
A -2-2-2-2-2-2-2-2-5-5---3-3---|
E -0-0-0-0-0-0-0-0-3-3---1-1---|

Riff 2A

E ---------------------------|
B ---------------------------|
G ---------------------------|
D -2-2-2-2-2-2-2-2-5----3----|
A -2-2-2-2-2-2-2-2-5----3----|
E -0-0-0-0-0-0-0-0-3----1----|

Riff 2B

E ------------------------------|
B ------------------------------|
G ------------------------------|
D -2-2-2-2-2-2-2-2-5----3--3--2-|
A -2-2-2-2-2-2-2-2-5----3--3--2-|
E -0-0-0-0-0-0-0-0-3----1--1--0-|

Riff 3

E----------------------------------------------------------------------------------------|
B----------------------------------------------------------------------------------------|
G----------------------------------------------------------------------------------------|
D-------------------5--------------------10--------------------5--------------------10---|
A-------------------5--------------------10--------------------5--------------------10---|
E-55-55-55-55-55-55-3--55-55-55-55-55-55-8--55-55-55-55-55-55-3--55-55-55-55-55-55--8----|


E-------------------------------------------------------------------------------------|
B-------------------------------------------------------------------------------------|
G----------------------------------------7-----------------------------------------7--|
D-------------------4--------------------7--------------------4--------------------7--|
A-22-22-22-22-22-22-4--22-22-22-22-22-22-5--22-22-22-22-22-22-4--22-22-22-22-22-22-5--|
E-------------------2-----------------------------------------2-----------------------|

Order

Riff 1 x 2
Riff 1A x 1
Riff 2 x 3
Riff 2A x 1
Riff 2 x 7
Riff 2A x 1
Riff 3 x 2
Riff 2 x 3
Riff 2A x 1
Riff 2 x 7
Riff 2A x 1
Riff 3 x 2
Riff 2 x 3
Riff 2A x 1
Riff 2 x 7
Riff 2A x 1
Riff 3 x 2
Riff 2 x 3
Riff 2A x 4
Riff 2B x 1
Tap to rate this tab
 
# A B C D E F G H I J K L M N O P Q R S T U V W X Y Z