Song name
# A B C D E F G H I J K L M N O P Q R S T U V W X Y Z

Sodom - Little Boy tab

|-------------------------------------------|
|-------------------------------------------|
|-------------------------------------------|Intro 4X rpt.
|-------12\7-----8/9-------12/9----8/9------|
|-------10\9-----6/7-------10/7----6/7-5/3--|
|-----0------0-0----000000-0----0-0----3/1-0|

|-------------------------------------------|
|-------------------------------------------|
|-------------------------------------------|riff 1...rpt 4X
|-------------------------------------------|
|-8/7---------------------3--32-------------|
|-6/5--0010030010030010030100101003001003001|

|-------------------------------------------|
|-------------------------------------------|
|-------------------------------------------|
|-------------------------------------------|singing...rpt 4x
|3-------3-------3-------3-------3-4-5-6----|
|1-1-1-1-1-1-1-1-1-1-1-1-1-1-1-1-1-2-3-4----|
    
|-------------------------------------------|
|-------------------------------------------|
|-------------------------------------------|
|-------------------------------------------|riff 2
|---2-8-7-6-------7/8/7/8------7/8/6~~------|
|---0-6-5-4-000000-------000000-------------|

     and back singing 4x....
     then riff 2 again 4x....
     Intro (half)
     riff 1

|-------------------------------------------|                        
|-------------------------------------------|
|-------------------------------------------|riff 3
|-------------------------------------------|
|-777---666---444-------777---666---444-----|
|----888---777---5555555---888---777---55555|

|-------------------------------------------|
|-------------------------------------------|
|999------888---666------999------888---666-|
|---101010---999---777777---101010---999---7777777|riff 4
|-------------------------------------------|
|-------------------------------------------|

|-------------------------------------------|
|-------------------------------------------|
|-------------------------------------------|riff 5...rpt 2x
|--12--9--8--9--12--9-----------------------|
|--10--7--6--7--10--7-----------------------|
|--------------------0-0-0-0-0-0-0-0-0------|

     intro(half)

|-------------------------------------------|
|-------------------------------------------|
|-------------------------------------------|
|-12/9---8/7--------------------------------|riff 6...rpt 4 times
|-10/7---6/5--8/7/5---6/3-------------------|
|0----0-0---0-6/5/3-0-4/5-0-----------------|

     singing 
     riff 2 4X
     solo
     riff 2 4X
|-------------------------------------------|
|-------------------------------------------|
|-------------------------------------------|
|-------------------------------------------|riff 7
|--6----6----6----6----6----6---------------|
|--44444444444444444444444444---------------|
       
     riff 1 faster
     riff 3 faster
     riff 5 faster

                          THE END!!!(explosion)
                  


Tap to rate this tab
# A B C D E F G H I J K L M N O P Q R S T U V W X Y Z