Song name
# A B C D E F G H I J K L M N O P Q R S T U V W X Y Z

Sodom - Sodomy & Lust tab

Help us improve GuitareTab! Take a short survey!
Legend :

-: repeat last measure
~~~ : vibrato


VERSE

--------------------------------------------|-------|
--------------------------------------------|-------|
--------------------------------------------|---|
--------------------------------------------|-------|
-8----------8----------9----------9---------|-------|
-7-7-7-7-7--7-7-7-7-7--7-7-7-7-7--7-7-7-7-7-|-------|

--------------------------------------------|-------||
--------------------------------------------|-------||
--------------------------------------------|---||
--------------------------------------------|-------||
-7----------7----------6----------6---------|-------||
-4-4-4-4-4--4-4-4-4-4--4-4-4-4-4--4-4-4-4-4-|-------||


CHORUS A

--------------------------------------------------------------------|
--------------------------------------------------------------------|
--------------------------------------------------------------------|
--------------------------------------------------------------------|
-2-2-2-2-2-2-2-2--2-2-2-2-2-2-2-2--0-0-0-0-0-0-0-0--2-2-2-2-2-2-2-2-|
--------------------------------------------------------------------|

--------------------------------------------------------------------||
--------------------------------------------------------------------||
--------------------------------------------------------------------||
--------------------------------------------------------------------||
-7-7-7-7-7-7-7-7--7-7-7-7-7-7-7-7--6-6-6-6-6-6-6-6--6-6-6-6-6-6-6-6-||
--------------------------------------------------------------------||

CHORUS B

--------------------------------------------------------------------|-----||
--------------------------------------------------------------------|-----||
--------------------------------------------------------------------|-----||
--------------------------------------------------------------------|--9--||
-2-2-2-2-2-2-2-2--2-2-2-2-2-2-2-2--0-0-0-0-0-0-0-0--2-2-2-2-2-2-2-2-|--7--||
--------------------------------------------------------------------|-----||


BRIDGE 1
                                                                   ~~~~
-----------------|-----------------|-----------------|------------------||
-----------------|-----------------|-----------------|------------------||
-----------------|-----------------|-----------------|------------------||
-----9-----9-----|-10-----9------7-|-----9-----9-----|------------------||
-----7-----7-----|-8------7------5-|-----7-----7-----|-------0-2-3-2----||
-0-0---0-0---0-0-|----0-0----0-0---|-0-0---0-0---0-0-|-0-2-3------------||


BRIDGE 2

----------------|-----------------||
----------------|-----------------||
----------------|-----------------||
-3-----2--------|-----------------||
-1-----0------5-|-2-2-2-2-2-2-2-2-||
---0-0---0-0--3-|-0-0-0-0-0-0-0-0-||

BRIDGE 3

-----|-----|-----|-----|-----|-----|-----|-----||
-----|-----|-----|-----|-----|-----|-----|-----||
-----|-----|-----|-----|-----|-----|-----|-----||
-----|-----|-----|-----|-----|-----|-----|-----||
--2--|--2--|--2--|--2--|--2--|--2--|--2--|--2--||
--0--|--0--|--0--|--0--|--0--|--0--|--0--|--0--||

Song Order :

VERSE (5 times)
CHORUS A (3 times)
CHORUS B
VERSE (4 times)
CHORUS A (3 times)
CHORUS B
BRIDGE 1 (6 times)
BRIDGE 2 (4 times)
BRIDGE 3
VERSE (4 times)            
CHORUS A (4 times)         
VERSE (4 times)            
CHORUS A (3 times)         
CHORUS B (end thrashing on E)


Related for Sodomy & Lust tab