Sodom - Baptism Of Fire tab

e|-------------------------|
a|-------------------------|
d|--14b(16)--14-12---------|
g|------------------14~~~--|
b|-------------------------|
e|-------------------------|

e|--------------------------------------------------------------------------|
a|--------------------------------------------------------------------------|
d|--------------------------------------------------------------------------|
g|--------7-9-7-------------7-9-7-------------------------------------------|
b|-7-9-10-------10-9-7-9-10-------10-9-7\5-4-5-7-5-4\2-0--------------------|
E|-------------------------------------------------------2~~~~~-------------|

e|--------------------------------------------------------------------------|
a|---------------15b(17)--22p19p17(repeat several times,listen to song)-22b-|
d|-14b(16)-14-12------------------------------------------------------------|
g|--------------------------------------------------------------------------|
b|--------------------------------------------------------------------------|
E|--------------------------------------------------------------------------|

e|-22p19p17-22p19p17-22p19p17-22p19p17-22p19p17-22p19p17-22p19p17-----------|
a|--------------------------------------------------------------------------|
d|--------------------------------------------------------------------------|
g|--------------------------------------------------------------------------|
b|--------------------------------------------------------------------------|
e|--------------------------------------------------------------------------|

e|-17p15p14-17p15p14-17p15p14-17p15p14-17p15p14-17p15p14-17p15p14-----------|
a|--------------------------------------------------------------------------|
d|--------------------------------------------------------------------------|
g|--------------------------------------------------------------------------|
b|--------------------------------------------------------------------------|
e|--------------------------------------------------------------------------|

e|--------------------------------------------------------------------------|
a|-17p15p14-15p14-17p15p14-15p14-17p15p14-15p14-17p15p14-15p14-17p15p14-----|
d|--------------------------------------------------------------------------|
g|--------------------------------------------------------------------------|
b|--------------------------------------------------------------------------|
e|--------------------------------------------------------------------------|

e|--------------------------------------------------------------------------|
a|--------------------------------------------------------------------------|
d|-16p14p12-14p12-16p14p12-14p12-16p14p12-14p12-16p14p12-14p12-16p14p12-14b-|
g|--------------------------------------------------------------------------|
b|--------------------------------------------------------------------------|
e|--------------------------------------------------------------------------|

e|--------------------------------------------------------------------------|
a|--------------------------------------------------------------------------|
d|-14-------12----13b-12---14b(16)~~~~~~-12b(14)~~~~~~----------------------|
g|----12/14----14-----------------------------------------------------------|
b|--------------------------------------------------------------------------|
e|--------------------------------------------------------------------------|
Tap to rate this tab
 
# A B C D E F G H I J K L M N O P Q R S T U V W X Y Z