Song name
# A B C D E F G H I J K L M N O P Q R S T U V W X Y Z

Sodom - In War And Pieces tab

Genre:Thrash Metal
Album:In War And Pieces

Key:
*=Harmonic
^=Bend
.=tremolo pick

(0:09)             (0:14)
|--12---------------|--12----|
|12--12-12----------|12--12--|
|------------10-----|------10|
|----------10--10-10|--------|
|-------------------|--------|
|-------------------|--------|

(0:17)
|--------------------------------------------------------|
|--------------------------------------------------------|
|--------------------------------------------------------|
|----------------------------------------------------3*.-|
|5\2---------3\2-----------------5\2---------3\2------3*.|
|3\0-0-0-0-0-1\0-0-0-0-0-0-0-0-0-3\0-0-0-0-0-1\0-0-0-----|

|----------------------------------------------------------|
|----------------------------------------------------------|
|----------------------------------------------------------|
|----------------------------------------------------------|
|5\2---------3\2-----------------5\2---------3\2--------3*^|
|3\0-0-0-0-0-1\0-0-0-0-0-0-0-0-0-3\0-0-0-0-0-1\0-0-0-0-----|

(0:32)
|-------------------------|
|-------------------------|
|-------------------------|
|-------------------------|
|5\2---------3\2-------5-7|
|3\0-0-0-0-0-1\0-0-0-0-3-5|

(0:33)
|----------------------------------------------------------|
|----------------------------------------------------------|
|----------------------------------------------------------|
|----------------------------------------------------------|
|5\2---------3\2-------5-7-5\2---------3\5-----------------|
|3\0-0-0-0-0-1\0-0-0-0-3-5-3\0-0-0-0-0-1\3-0-0-0-0-0-0-0-0-|

---------------------------------------------------|
---------------------------------------------------|
---------------------------------------------------|
------------------------------------------------3*.|
5\2---------3\2-------5-7-5\2---------3\2----------|
3\0-0-0-0-0-1\0-0-0-0-3-5-3\0-0-0-0-0-1\0-0-0-0----|

(0:49)
|--------------|
|--------------|
|9.--10.-12.-10|
|X---X---X-.-X-|
|7.--8.--10.-8-|
|--------------|

(0:57)
|----------------------------------------------------------|
|----------------------------------------------------------|
|----------------------------------------------------------|
|----------------------------------------------------------|
|5/2---------3/2-------5-7-5/2---------3/2-----------------|
|3/0-0-0-0-0-1/0-0-0-0-3-5-3/0-0-0-0-0-1/0-0-0-0-0-0-0-0-0-|

---------------------------------------------------|
---------------------------------------------------|
---------------------------------------------------|
------------------------------------------------3*.|
5/2---------3/2-------5-7-5/2---------3/2----------|
3/0-0-0-0-0-1/0-0-0-0-3-5-3/0-0-0-0-0-1/0-0-0-0----|

(1:13)
|--------------|
|--------------|
|9.--10.-12.-10|
|X---X---X-.-X-|
|7.--8.--10.-8-|
|--------------|

(1:29)
|--------------------------------------------------------|
|--------------------------------------------------------|
|--------------------------------------------------------|
|----9\7/9---10\9/10---12\10/12---10\9/10----------------|
|----7\5/7----8\7/8----10\8/10-----8\7/8-----------------|
|0-0------0-0------0-0--------0-0--------0-0-0-0-0-0-0-0-|

(1:45)
|--------------------------|
|--------------------------|
|--------------------------|
|--------------------------|
|2-2-2-2-2--2-2-2-2--2-2-2-|
|0-0-0-0-0--0-0-0-0--0-0-0-|

(1:53)
|--------------|
|--------------|
|9.--10.-12.-10|
|X---X---X-.-X-|
|7.--8.--10.-8-|
|--------------|
(does a harmonic before next riff)

(2:01)
|--------------------------------------------------------|
|--------------------------------------------------------|
|--------------------------------------------------------|
|----------------------------------------------------3*.-|
|5/2---------3/2-----------------5/2---------3/2------3*.|
|3/0-0-0-0-0-1/0-0-0-0-0-0-0-0-0-3/0-0-0-0-0-1/0-0-0-----|

|----------------------------------------------------------|
|----------------------------------------------------------|
|----------------------------------------------------------|
|----------------------------------------------------------|
|5/2---------3/2-----------------5/2---------3/2--------3*^|
|3/0-0-0-0-0-1/0-0-0-0-0-0-0-0-0-3/0-0-0-0-0-1/0-0-0-0-----|

(2:17)
|--------------|
|--------------|
|9.--10.-12.-10|
|X---X---X-.-X-|
|7.--8.--10.-8-|
|--------------|

(2:33)
|--------------------------------------------------------|
|--------------------------------------------------------|
|--------------------------------------------------------|
|----9\7/9---10\9/10---12\10/12---10\9/10----------------|
|----7\5/7----8\7/8----10\8/10-----8\7/8-----------------|
|0-0------0-0------0-0--------0-0--------0-0-0-0-0-0-0-0-|

(2:49)
|--------------------------|-|
|--------------------------|-|
|--------------------------|-|
|--------------------------|-|
|2-2-2-2-2--2-2-2-2--2-2-2-|2|
|0-0-0-0-0--0-0-0-0--0-0-0-|0|

Solo: don`t feel like tabbing it

(3:05)
|-----------------------------------------|
|-----------------------------------------|
|-----------------------------------------|
|----7-9--------9-10-------1012--------109|
|----5-7--------7-8--------8-10--------8-7|
|0000---00000000---00000000----00000000---|

(3:20)
|-------------------------------------------------------------------|
|-------------------------------------------------------------------|
|-------------------------------------------------------------------|
|-------------------------------------------------------------------|
|-------------------------------------------------------------------|
|7777777777777777777777107777777777777777777777104444444444444444444

---------------------|
---------------------|
---------------------|
---------------------|
---------------------|
444474444444444444444|

(3:37)
|----------------------------------------------------------|
|----------------------------------------------------------|
|----------------------------------------------------------|
|----------------------------------------------------------|
|5/2---------3/2-------5-7-5/2---------3/2-----------------|
|3/0-0-0-0-0-1/0-0-0-0-3-5-3/0-0-0-0-0-1/0-0-0-0-0-0-0-0-0-|

---------------------------------------------------|
---------------------------------------------------|
---------------------------------------------------|
------------------------------------------------3*.|
5/2---------3/2-------5-7-5/2---------3/2----------|
3/0-0-0-0-0-1/0-0-0-0-3-5-3/0-0-0-0-0-1/0-0-0-0----|

(3:45)
|-----------------------------------------------|
|-----------------------------------------------|
|-----------------------------------------------|
|--------7-9--------9-10-------10-12--------10-9|
|--------5-7--------7-8--------8--10--------8--7|
|0-0-0-0----0-0-0-0----0-0-0-0------0-0-0-0-----|

(4:00)
|-----------------------------|
|-----------------------------|
|-----------------------------|
|-----------------------------|
|22222222222222222222222222222|
|00000000000000000000000000000|

                        IN WAR, AND PIECES!!!!!!!
Tap to rate this tab
 
# A B C D E F G H I J K L M N O P Q R S T U V W X Y Z