Sodom - Remember The Fallen tab

Remember the Fallen
by Sodom

Standard Tuning

Riff A1 x3

|-----------------------------|
|-----------------------------|
|-----------------------------|
|-----------------------------|
|-2--3-2----0h2---------------|
|-0------3------3-3h5---------|

A2 x3
|-----------------------------|
|-----------------------------|
|-----------------------------|
|-----------------------------|
|-2--3-2----0h2---------------|
|-0------3------3-3h5---------|


Riff B x4
|--------------------------------------------------------|
|--------------------------------------------------------|
|--------------------------------------------------------|
|--------------------------------------------------------|
|-2-----2-----2-----------0-2~-------2---------3-----5---|
|-0-0-0-0-0-0-0-0-0-3---0--------0-0-0-0-0-1-1-1-3-3-3---|
    . .   . .   . .              . .   . . . .   . .

Riff C x2

|--------------------------------------------------------|
|--------------------------------------------------------|
|--------------------------------------------------------|
|--------------------------------------------------------|
|-4-----4-----4-----4---12----7-----7---------5-----7----|
|-2-2-2-2-2-2-2-2-2-2---10----5-5-5-5-5-5-3-3-3-5-5-5----|
    . .   . .   . .             . .   . . . .   . .
 
Riff B x2
Riff C (on solo) x2

Riff D x2                                                1st                2nd
|-------------------------------------------------------|------------------|------------------|
|-------------------------------------------------------|------------------|------------------|
|-------------------------------------------------------|------------------|------------------|
|-------------------------------------------------------|------------------|------------------|
|-------------------------------------------------------|------------------|------------------|
|-0--0000--0--0000--0--0000--0--0000---1--1111--1--1111-|-7--7777--8--8888-|-8--8888--7--7777-|


Riff E     1st      2nd
|---------|--------|---------|
|---------|--------|---------|
|---------|--------|---------|
|---------|--------|---------|
|-2---3---|-9--10--|-10--9---|
|-0---1---|-7--8---|-8---7---|


Riff F
|-----------|
|-----------|
|-----------|
|-----------|
|-2---------|
|-0---------|

Riff B x4
Riff C x2

Riff B x2
Riff C (on solo) x2

Riff D x2
Riff E
Riff F

End Riff    Tremolo out
|----------|---------------------|
|----------|---------------------|
|----------|---------------------|
|----------|---------------------|
|-10--9--2-|-------------------2-|
|-8---7--0-|-0###########------0-|
Tap to rate this tab
 
# A B C D E F G H I J K L M N O P Q R S T U V W X Y Z