Song name
# A B C D E F G H I J K L M N O P Q R S T U V W X Y Z

Sodom - Body Parts tab

	Sodom
   - Body Parts  -

   tabbed by PelzR

------
Infos:
------

Tuning: 1 step down (D G C F A D)

Maybe there are some mistakes. Corrections are welcome.
Also listen carefully to the timings, specially to the staccato riffs.
No solo, sorry.

------
Riffs:
------
				    
Intro/Main Riff
                  
D|---------------------|---------------|
A|---------------------|---------------|
F|o-------------------o|---------------| 
C|o-10\9--------------o|---10-10-10-10-| 
G|---8\7---------------|-8-------------|
D|-------000000000000--|---------------|
         ............


Verse

D|------------------|------------------|
A|------------------|------------------|
F|------------------|------------------| 
C|------------------|------------------| 
G|------------------|------------------|
D|-3333333333333333-|-4444444444444444-|
   ................   ................

Break

D|---|
A|---|
F|---| let it  
C|---| ring
G|-4-|
D|-2-|
   

Interlude
		
D|---------------------|---------------|---------------|
A|---------------------|---------------|---------------|
F|---------------------|---------------|---------------| 
C|---------------------|---------------|---------------|
G|-4-----4-------------|-4-------------|-4-----5--8--5-|
D|-2-2-2-2-2-2-222-2-2-|-2-2-2-222-2-2-|-2-2-2-3--6--3-|
     . .   . . ... . .     . . ... . .     . .

repeat these bars above 4x
then play this bars below 2x

D|----------------|------------------|------------------|
A|----------------|------------------|------------------| listen careful
F|----------------|------------------|------------------| to the timing
C|----------------|------------------|------------------| 
G|-4--------------|------------------|----------5--8--5-| 
D|-2-222222222222-|-2222222222222222-|-22222222-3--6--3-|
     ............   ................   ........


Bridge

D|-------------------|
A|-------------------|
F|-------------------|  
C|----12-------------|
G|-10----11-11-11-11-|
D|-------------------|
                  


Lead Part

D|------------------|------------------|------------------|------------------| not quite
A|------------------|------------------|------------------|------------------| sure about that
F|------------------|------------------|------------------|------------------| the rythm. guitars
C|------------------|------------------|------------------|-33333333---------| are buried under
G|------------------|------------------|------------------|---------2222-----| the lead guitar
D|-3333333333333333-|-6666666677774444-|-3333333333333333-|-------------4444-|
   ................   ................   ................   ................


Outro

D|-------------------------|
A|-------------------------|
F|-------------------------|  
C|----12-------------------|
G|-10----11-11-11------6-5-|
D|----------------0000-4-3-|
                  ....

----------
Structure:
----------
Intro      6x
Verse      2x
Main Riff  2x
Verse      2x
Break      1x
Main Riff  2x
Verse      2x
Main Riff  2x
Verse      2x
Break      1x
Interlude  first part  4x
	   second part 2x
Bridge     1x
Lead Part  2x
Main Riff  4x
Verse      2x
Main Riff  2x
Verse      2x
Break      1x
Outro      1x

------------
Description:
------------
.   - palm mute
\   - slide
o
o   - repeat parts


Tap to rate this tab
 
# A B C D E F G H I J K L M N O P Q R S T U V W X Y Z