Song name
# A B C D E F G H I J K L M N O P Q R S T U V W X Y Z

Sodom - The Saw Is The Law tab

*: palm mute
s: slide
~: vibrato
b*: bend up to * case
r*: bend down to * case




|--------------|
|--------------|
|--------------|
|-10-9----9--9-|
|-8--7----7--7-|
|--------------|


|-------------------------------------------------------------|
|-------------------------------------------------------------|
|--------------------------------9----------------------------|
|-------------10-9-----10-9-8-9----9-----------10-9-----------|
|-------------8--7-----8--7-6-7------7---------8--7-5-4-3-2-2-|
|-0-0-0-0-0-0------0-0-----------------0-0-0-0------3-2-1-0-0-|
  * * * * * *      * *                 * * * *


|-------------------------------------------------------------|
|-------------------------------------------------------------|
|--------------------------------7----------------------------|
|-------------10-9-----10-9-8-9----7-----------10-9-----------|
|-------------8--7-----8--7-6-7------7---------8--7-5-4-3-2-2-|
|-0-0-0-0-0-0------0-0-----------------0-0-0-0------3-2-1-0-0-|
  * * * * * *      * *                 * * * *


|-------------------------------------------------------------|
|-------------------------------------------------------------|
|-------------------------------------------------------------|
|-------------10-9-----10-9-8-9-9--------------10-9-----------|
|-------------8--7-----8--7-6-7-7--------------8--7-5-4-3-2-2-|
|-0-0-0-0-0-0------0-0-------------0-0-0-0-0-0------3-2-1-0-0-|
  * * * * * *      * *             * * * * * *


|-------------------------------------------------------------|
|-------------------------------------------------------------|
|-------------------------------------------------------------|
|-------------10-9-----10-9-8-9-9--------------10-9-----------|
|-------------8--7-----8--7-6-7-7--------------8--7-5-4-3-2-4-|
|-0-0-0-0-0-0------0-0-------------0-0-0-0-0-0------3-2-1-0-2-|
  * * * * * *      * *             * * * * * *


|------------------------------------------------------------------|
|------------------------------------------------------------------|
|-------2--------4--6---2b3r2--------------------------------------|
|----------4-----2--4---------4--2---------------------------------|
|-4----------------------------------------3-4-3-4-3-4-3-4-3-4-3-4-|
|-2-2-2-------2---------------------1-1-1--1-2-1-2-1-2-1-2-1-2-1-2-|
    * *       *                     * * *


|--------------------------------------------------2-2-2-2-2-2-2-2-|
|--------------------------------------------------2-2-2-2-2-2-2-2-|
|-------2--------4--6---2b3r2--------------------------------------|
|----------4-----2--4---------4--2---------------------------------|
|-4----------------------------------------3-4-3-4-----------------|
|-2-2-2-------2---------------------1-1-1--1-2-1-2-----------------|
    * *       *                     * * *


|---------------------------------------------------------------------|
|---------------------------------------------------------------------|
|-----------------------------------9---------------------------------|
|-10-------------10-9-----10-9-8-9----9-----------10-9--s--12-11-10-9-|
|-8--------------8--7-----8--7-6-7------7---------8--7--s--10-9--8--7-|
|----0-0-0-0-0-0------0-0-----------------0-0-0-0---------------------|
     * * * * * *      * *                 * * * *


|---------------------------------------------------------------------|
|---------------------------------------------------------------------|
|-----------------------------------7---------------------------------|
|-10-------------10-9-----10-9-8-9----7-----------10-9-----12-11-10-9-|
|-8--------------8--7-----8--7-6-7------7---------8--7-----10-9--8--7-|
|----0-0-0-0-0-0------0-0-----------------0-0-0-0------0-0------------|
     * * * * * *      * *                 * * * *      * *


|-------------------------------------------------------------|
|-------------------------------------------------------------|
|-------------------------------------------------------------|
|-------------10-9-----10-9-8-9-9--------------10-9-----------|
|-------------8--7-----8--7-6-7-7--------------8--7-5-4-3-2-2-|
|-0-0-0-0-0-0------0-0-------------0-0-0-0-0-0------3-2-1-0-0-|
  * * * * * *      * *             * * * * * *


|-------------------------------------------------------------|
|-------------------------------------------------------------|
|-------------------------------------------------------------|
|-------------10-9-----10-9-8-9-9--------------10-9-----------|
|-------------8--7-----8--7-6-7-7--------------8--7-5-4-3-2-4-|
|-0-0-0-0-0-0------0-0-------------0-0-0-0-0-0------3-2-1-0-2-|
  * * * * * *      * *             * * * * * *


|------------------------------------------------------------------|
|------------------------------------------------------------------|
|-------2--------4--6---2b3r2--------------------------------------|
|----------4-----2--4---------4--2---------------------------------|
|-4----------------------------------------3-4-3-4-3-4-3-4-3-4-3-4-|
|-2-2-2-------2---------------------1-1-1--1-2-1-2-1-2-1-2-1-2-1-2-|
    * *       *                     * * *


|--------------------------------------------------2-2-2-2-2-2-2-2-|
|--------------------------------------------------2-2-2-2-2-2-2-2-|
|-------2--------4--6---2b3r2--------------------------------------|
|----------4-----2--4---------4--2---------------------------------|
|-4----------------------------------------3-4-3-4-----------------|
|-2-2-2-------2---------------------1-1-1--1-2-1-2-----------------|
    * *       *                     * * *


|---------------------------------------------------------------------|
|---------------------------------------------------------------------|
|-----------------------------------9---------------------------------|
|-10-------------10-9-----10-9-8-9----9-----------10-9--s--12-11-10-9-|
|-8--------------8--7-----8--7-6-7------7---------8--7--s--10-9--8--7-|
|----0-0-0-0-0-0------0-0-----------------0-0-0-0---------------------|
     * * * * * *      * *                 * * * *


|---------------------------------------------------------------------|
|---------------------------------------------------------------------|
|-----------------------------------7---------------------------------|
|-10-------------10-9-----10-9-8-9----7-----------10-9-----12-11-10-9-|
|-8--------------8--7-----8--7-6-7------7---------8--7-----10-9--8--7-|
|----0-0-0-0-0-0------0-0-----------------0-0-0-0------0-0------------|
     * * * * * *      * *                 * * * *      * *


|---------------------------------------------------------------------|
|---------------------------------------------------------------------|
|-----------------------------------9---------------------------------|
|-10-------------10-9-----10-9-8-9----9-----------10-9--s--12-11-10-9-|
|-8--------------8--7-----8--7-6-7------7---------8--7--s--10-9--8--7-|
|----0-0-0-0-0-0------0-0-----------------0-0-0-0---------------------|
     * * * * * *      * *                 * * * *


|---------------------------------------------------------------------|
|---------------------------------------------------------------------|
|-----------------------------------7---------------------------------|
|-10-------------10-9-----10-9-8-9----7-----------10-9-----12-11-10-9-|
|-8--------------8--7-----8--7-6-7------7---------8--7-----10-9--8--7-|
|----0-0-0-0-0-0------0-0-----------------0-0-0-0------0-0------------|
     * * * * * *      * *                 * * * *      * *


|--------------|
|--------------|
|--------------|
|-10-9----9--9-|
|-8--7----7--7-|
|--------------|


|-------------------------------------------------------------|
|-------------------------------------------------------------|
|-------------------------------------------------------------|
|-------------10-9-----10-9-8-9-9--------------10-9-----------|
|-------------8--7-----8--7-6-7-7--------------8--7-5-4-3-2-2-|
|-0-0-0-0-0-0------0-0-------------0-0-0-0-0-0------3-2-1-0-0-|
  * * * * * *      * *             * * * * * *


|-------------------------------------------------------------|
|-------------------------------------------------------------|
|-------------------------------------------------------------|
|-------------10-9-----10-9-8-9-9--------------10-9-----------|
|-------------8--7-----8--7-6-7-7--------------8--7-5-4-3-2-4-|
|-0-0-0-0-0-0------0-0-------------0-0-0-0-0-0------3-2-1-0-2-|
  * * * * * *      * *             * * * * * *


|------------------------------------------------------------------|
|------------------------------------------------------------------|
|-------2--------4--6---2b3r2--------------------------------------|
|----------4-----2--4---------4--2---------------------------------|
|-4----------------------------------------3-4-3-4-3-4-3-4-3-4-3-4-|
|-2-2-2-------2---------------------1-1-1--1-2-1-2-1-2-1-2-1-2-1-2-|
    * *       *                     * * *


|--------------------------------------------------2-2-2-2-2-2-2-2-|
|--------------------------------------------------2-2-2-2-2-2-2-2-|
|-------2--------4--6---2b3r2--------------------------------------|
|----------4-----2--4---------4--2---------------------------------|
|-4----------------------------------------3-4-3-4-----------------|
|-2-2-2-------2---------------------1-1-1--1-2-1-2-----------------|
    * *       *                     * * *


|---------------------------------------------------------------------|
|---------------------------------------------------------------------|
|-----------------------------------9---------------------------------|
|-10-------------10-9-----10-9-8-9----9-----------10-9--s--12-11-10-9-|
|-8--------------8--7-----8--7-6-7------7---------8--7--s--10-9--8--7-|
|----0-0-0-0-0-0------0-0-----------------0-0-0-0---------------------|
     * * * * * *      * *                 * * * *


|---------------------------------------------------------------------|
|---------------------------------------------------------------------|
|-----------------------------------7---------------------------------|
|-10-------------10-9-----10-9-8-9----7-----------10-9-----12-11-10-9-|
|-8--------------8--7-----8--7-6-7------7---------8--7-----10-9--8--7-|
|----0-0-0-0-0-0------0-0-----------------0-0-0-0------0-0------------|
     * * * * * *      * *                 * * * *      * *


|------------------------------------------------------------------|
|------------------------------------------------------------------|
|-------2--------4--6---2b3r2--------------------------------------|
|----------4-----2--4---------4--2---------------------------------|
|-4----------------------------------------3-4-3-4-3-4-3-4-3-4-3-4-|
|-2-2-2-------2---------------------1-1-1--1-2-1-2-1-2-1-2-1-2-1-2-|
    * *       *                     * * *


|--------------------------------------------------2-2-2-2-2-2-2-2-|
|--------------------------------------------------2-2-2-2-2-2-2-2-|
|-------2--------4--6---2b3r2--------------------------------------|
|----------4-----2--4---------4--2---------------------------------|
|-4----------------------------------------3-4-3-4-----------------|
|-2-2-2-------2---------------------1-1-1--1-2-1-2-----------------|
    * *       *                     * * *


|---------------------------------------------------------------------|
|---------------------------------------------------------------------|
|-----------------------------------9---------------------------------|
|-10-------------10-9-----10-9-8-9----9-----------10-9--s--12-11-10-9-|
|-8--------------8--7-----8--7-6-7------7---------8--7--s--10-9--8--7-|
|----0-0-0-0-0-0------0-0-----------------0-0-0-0---------------------|
     * * * * * *      * *                 * * * *


|---------------------------------------------------------------------|
|---------------------------------------------------------------------|
|-----------------------------------7---------------------------------|
|-10-------------10-9-----10-9-8-9----7-----------10-9-----12-11-10-9-|
|-8--------------8--7-----8--7-6-7------7---------8--7-----10-9--8--7-|
|----0-0-0-0-0-0------0-0-----------------0-0-0-0------0-0------------|
     * * * * * *      * *                 * * * *      * *


|---------------------------------------------------------------------|
|---------------------------------------------------------------------|
|-----------------------------------9---------------------------------|
|-10-------------10-9-----10-9-8-9----9-----------10-9--s--12-11-10-9-|
|-8--------------8--7-----8--7-6-7------7---------8--7--s--10-9--8--7-|
|----0-0-0-0-0-0------0-0-----------------0-0-0-0---------------------|
     * * * * * *      * *                 * * * *


|---------------------------------------------------------------------|
|---------------------------------------------------------------------|
|-----------------------------------7---------------------------------|
|-10-------------10-9-----10-9-8-9----7-----------10-9-----12-11-10-9-|
|-8--------------8--7-----8--7-6-7------7---------8--7-----10-9--8--7-|
|----0-0-0-0-0-0------0-0-----------------0-0-0-0------0-0------------|
     * * * * * *      * *                 * * * *      * *


|----------------------------------------------------------------------|
|----------------------------------------------------------------------|
|----------------4-4------4-4--4--4-----------------4-4------4-4--4--5-|
|----------------2-2------2-2--2--2-----------------2-2------2-2--2--3-|
|----------------------------------------------------------------------|
|-00000000000000-----0000------------00000000000000-----0000-----------|
  **************     ****            **************     ****


|-----------------------------------------------------------------------|
|-----------------------------------------------------------------------|
|----------------4-4------4-4--4--4-----------------4-4-----------------|
|----------------2-2------2-2--2--2-----------------2-2------12-11-10-9-|
|------------------------------------------------------------10-9--8--7-|
|-00000000000000-----0000------------00000000000000-----0000------------|
  **************     ****            **************     ****


|------------------------|
|--------------3~~-------|
|--------------4~~----4s-|
|--------------2~~----2s-|
|-2--2--2--2-------------|
|-0--0--0--0-------------|
  *  *  *  *
Tap to rate this tab
# A B C D E F G H I J K L M N O P Q R S T U V W X Y Z