Song name
# A B C D E F G H I J K L M N O P Q R S T U V W X Y Z

Sodom - Sepulchral Voice tab

Sepulchral Voice - Sodom
From "In the Sign of Evil".
Tuning - EADGBE


Rate, please.

====================================

INTRO:

|-----------------||-----------------|
|-----------------||-----------------|
|-----------------||-----------------|
|-----------------||-----------------|
|--2--------------||--5--------------|
|--0--------------||--3--------------|

Let those chords ring and repeat them as many as necessary, just like in the song. These 
two chords are also played in between the riff sections, just listen to the song.

=====================================

RIFF 1:

|--------------------------|
|--------------------------|
|--------------------------|   (2x)
|--------------------------|
|--2-----------------------|
|--0---3-2-0-3-2-0-3-2-0---|


RIFF 2:

|--------------------------|
|--------------------------|
|--------------------------| (1x, then back to riff 1)
|--------------------------|
|--5-----------------------|
|--3---3-2-0-3-2-0-3-2-0---|


=====================================

RIFF 3:

|-------------------------------------|
|-------------------------------------|
|-------------------------------------|
|-------------------------------------|
|--9-9-9-9-9-9-9-9-5-5-5-5-7-7-7-7----|
|--7-7-7-7-7-7-7-7-3-3-3-3-5-5-5-5----|
|
|
|---------------------------------------------|
|---------------------------------------------|
|---------------------------------------------|
|---------------------------------------------|
|--9-9-9-9-9-9-9-9-12-12-12-12-11-11-11-11----|
|--7-7-7-7-7-7-7-7-10-10-10-10--9--9--9--9----|

======================================

That's all.
Tap to rate this tab
# A B C D E F G H I J K L M N O P Q R S T U V W X Y Z