Song name
# A B C D E F G H I J K L M N O P Q R S T U V W X Y Z

Sodom - Witchhammer tab

Band: Sodom
Song: Witchhammer
Album: Obsessed by Cruelty (1986)
Tuning: 1 step down (DGCFAD)

Rate please.

____________________________________________

Riff:

|--------------------------------||-----------------------------------|
|--------------------------------||-----------------------------------|
|--------------------------------||-----------------------------------|
|--------------------------------||-----------------------------------|
|-------------------10--9--10----||---------------------14--12--14----|
|--0-0-0-0-0-0-0-0---8--7---8----||--0-0-0-0-0-0-0-0-0--12--10--12----|
|  P.M. ----------|                  P.M. ----------| 
|
|
|--------------------------------||-----------------------------------|
|--------------------------------||-----------------------------------|
|--------------------------------||-----------------------------------|
|--------------------------------||-----------------------------------|
|------------------10--9--10-----||--14--12--10----12-----------------|
|--0-0-0-0-0-0-0-0--8--7---8-----||--12--10---8----10-----------------|
   P.M. ----------|


Repeat this riff throughout the whole song (verses, chorus).

____________________________________________

Break for the solo:

|-----------------------------------|
|-----------------------------------|
|-----------------------------------| (And a lot of noise behind this, do
|--9--9--9--9--9--9--9--9-----------|  a few natural harmonics and go crazy)
|--7--7--7--7--7--7--7--7-----------| 
|-----------------------------------|
 

____________________________________________

End:

|-----------------------------------|
|-----------------------------------|
|-----------------------------------| 
|--9--9--9--9--9--9--9--9-----------|  
|--7--7--7--7--7--7--7--7-----------| 
|-----------------------------------|

|-----|
|-----|
|-----|
|--9--|
|--7--|
|--0--|
Tap to rate this tab
# A B C D E F G H I J K L M N O P Q R S T U V W X Y Z