Song name
# A B C D E F G H I J K L M N O P Q R S T U V W X Y Z

Sodom - Remeber The Fallen tab

Help us improve GuitareTab! Take a short survey!
p = pulloff
s = slide
b = bend
h = hammeron
* = palm mute

[Intro1]X3
E----------------------------------------------------------------|
B----------------------------------------------------------------|
G----------------------------------------------------------------|
D----------------------------------------------------------------|
A-2--3p2---2---0-------------------------------------------------|
E-0------3---3---------------------------------------------------|

[Intro2]X2
E----------------------------------------------------------------|
B----------------------------------------------------------------|
G----------------------------------------------------------------|
D----------------------------------------------------------------|
A-3--3p2---2---0-------------------------------------------------|
E-1------3---3---------------------------------------------------|

[Verse1]X4
E----------------------------------------------------------------|
B----------------------------------------------------------------|
G----------------------------------------------------------------|
D----------------------------------------------------------------|
A-2-----2-----2-----------0-2b------2------3-3-3--5-5-5----------|
E-0-0-0-0-0-0-0-0-0--3b-0-------0-0-0-0-0--1-1-1--3-3-3----------|
    * *   * *   * *             * *   * *  * *    * *
[Verse2]X2
E----------------------------------------------------------------|
B----------------------------------------------------------------|
G----------------------------------------------------------------|
D----------------------7-----------------------------------------|
A-4-----4-----4-----4--5-7-----7------5-5-5--7-7-7---------------|
E-2-2-2-2-2-2-2-2-2-2----5-5-5-5-5-5--3-3-3--5-5-5---------------|
    * *   * *   * *        * *   * *  * *    * *

[Verse]X2
E----------------------------------------------------------------|
B----------------------------------------------------------------|
G----------------------------------------------------------------|
D----------------------------------------------------------------|
A-2-----2-----2-----------0-2b------2------3-3-3--5-5-5----------|
E-0-0-0-0-0-0-0-0-0--3b-0-------0-0-0-0-0--1-1-1--3-3-3----------|
    * *   * *   * *             * *   * *  * *    * *

[Lead guitar solo]

E-13h14p13h14p13h14p-13s12h13h14s13s12h13h14-20b-16--------------|
B---------------------------------------------------18-15s13-18b-|
G----------------------------------------------------------------|
D----------------------------------------------------------------|
A----------------------------------------------------------------|
E----------------------------------------------------------------|

E----------------------------------------------------------------|
B----------------------------------------------------------------|
G-15b----------------------------14h16p14h16p14-17---------------|
D-----16-17----------------13-14---------------------------------|
A-----------12-11-12-11-12---------------------------------------|
E----------------------------------------------------------------|


[Verse2]X2 (2nd guitar during solo)

E----------------------------------------------------------------|
B----------------------------------------------------------------|
G----------------------------------------------------------------|
D----------------------7-----------------------------------------|
A-4-----4-----4-----4--5-7-----7------5-5-5--7-7-7---------------|
E-2-2-2-2-2-2-2-2-2-2----5-5-5-5-5-5--3-3-3--5-5-5---------------|
    * *   * *   * *        * *   * *  * *    * *


[Stick]X4
E----------------------------------------------------------------|
B----------------------------------------------------------------|
G----------------------------------------------------------------|
D----------------------------------------------------------------|
A----------------------------2-2-3-3-----------------------------|
E-0-00000-00000-0000-1-1-1-1-------------------------------------|
  * ***** ***** **** * * * * * * * *


E----------------------------------------------------------------|
B----------------------------------------------------------------|
G----------------------------------------------------------------|
D----------------------------------------------------------------|
A----------------------------3-3-2-2-----------------------------|
E-0-00000-00000-0000-1-1-1-1-------------------------------------|
  * ***** ***** **** * * * * * * * *

[Stick]X1
E----------------------------------------------------------------|
B----------------------------------------------------------------|
G----------------------------------------------------------------|
D-------4-5--------4-5-------------------------------------------|
A-2--3--2-3--2--3--2-3--2----------------------------------------|
E-0--1-------0--1-------0----------------------------------------|


[Verse1]X5

E----------------------------------------------------------------|
B----------------------------------------------------------------|
G----------------------------------------------------------------|
D----------------------------------------------------------------|
A-2-----2-----2-----------0-2b------2------3-3-3--5-5-5----------|
E-0-0-0-0-0-0-0-0-0--3b-0-------0-0-0-0-0--1-1-1--3-3-3----------|
    * *   * *   * *             * *   * *  * *    * *

[Verse2]X2
E----------------------------------------------------------------|
B----------------------------------------------------------------|
G----------------------------------------------------------------|
D----------------------7-----------------------------------------|
A-4-----4-----4-----4--5-7-----7------5-5-5--7-7-7---------------|
E-2-2-2-2-2-2-2-2-2-2----5-5-5-5-5-5--3-3-3--5-5-5---------------|
    * *   * *   * *        * *   * *  * *    * *

[Verse1]X2
E----------------------------------------------------------------|
B----------------------------------------------------------------|
G----------------------------------------------------------------|
D----------------------------------------------------------------|
A-2-----2-----2-----------0-2b------2------3-3-3--5-5-5----------|
E-0-0-0-0-0-0-0-0-0--3b-0-------0-0-0-0-0--1-1-1--3-3-3----------|
    * *   * *   * *             * *   * *  * *    * *

[lead guitar solo]

E----------------------------------------------------------------|
B-17b-15---------------------------------------------------------|
G--------14--14h15p14h15p14h15p14-13h14p13h14p13h14p13-----------|
D----------------------------------------------------------------|
A----------------------------------------------------------------|
E----------------------------------------------------------------|

E----------------------------------------------------------------|
B----------------------------------------------------------------|
G-12h13p12h13p12h13p12-11h12p11h12p11h12p11-10h11p10h11p10h11p10-|
D----------------------------------------------------------------|
A----------------------------------------------------------------|
E----------------------------------------------------------------|

E----------------------------------------------------------------|
B----------------------------------------------------------------|
G-9h10p9h10p9h10p9-----------------------------------------------|
D-------------------14s13s14-------------------------------------|
A----------------------------------------------------------------|
E-----------------------------12-13-14-15-16-17-18-19-20---------|


[Verse2]X2 (2nd guitar during solo)
E----------------------------------------------------------------|
B----------------------------------------------------------------|
G----------------------------------------------------------------|
D----------------------7-----------------------------------------|
A-4-----4-----4-----4--5-7-----7------5-5-5--7-7-7---------------|
E-2-2-2-2-2-2-2-2-2-2----5-5-5-5-5-5--3-3-3--5-5-5---------------|
    * *   * *   * *        * *   * *  * *    * *

[Stick]X2

E----------------------------------------------------------------|
B----------------------------------------------------------------|
G----------------------------------------------------------------|
D----------------------------------------------------------------|
A----------------------------2-2-3-3-----------------------------|
E-0-00000-00000-0000-1-1-1-1-------------------------------------|
  * ***** ***** **** * * * * * * * *


E----------------------------------------------------------------|
B----------------------------------------------------------------|
G----------------------------------------------------------------|
D----------------------------------------------------------------|
A----------------------------3-3-2-2-----------------------------|
E-0-00000-00000-0000-1-1-1-1-------------------------------------|
  * ***** ***** **** * * * * * * * *

[Outro]

E----------------------------------------------------------------|
B----------------------------------------------------------------|
G----------------------------------------------------------------|
D-------4-5--------4-5-------------------------------------------|
A-2--3--2-3--2--3--2-3--2----------------------------------------|
E-0--1-------0--1-------0----------------------------------------|
Related for Remeber The Fallen tab