Song name
# A B C D E F G H I J K L M N O P Q R S T U V W X Y Z

Soehne Mannheims - Wenn Du Schleafst tab

e||----------------0---3--5-----------8--12--10-----|
B||----------1--3--------------8--10----------------|
G||-------2-----------------------------------------|
D||----2--------------------------------------------|
A||-0-----------------------------------------------|
E||-------------------------------------------------|


e||----------------------0--1---01-----------------|
B||----------------1--3-------------3--1------------|
G||----------0--2-------------------------2--0------|
D||-------3-----------------------------------------|
A||----3--------------------------------------------|
E||-1-----------------------------------------------|
Tap to rate this tab
# A B C D E F G H I J K L M N O P Q R S T U V W X Y Z