Song name
# A B C D E F G H I J K L M N O P Q R S T U V W X Y Z

Sofa Surfers - Glitches Crashes Ashes tab

===========================================================================
Artist: Sofa Surfers
Album:  Superluminal [2012]
Title:  Glitches Crashes & Ashes
===========================================================================

Tuning: Standard

e|----5------5---------8--------------------|
B|---5-------5--------8---------------------|
G|--5--------5-------9----------------------|
D|-7---------7------------------------------| 
A|------------------------------------------|
E|------------------------------------------|

***
chord w/looper:
e|--5-------5-------5--------|
B|--5-------5-------5--------|
G|--5-------5-------5--------|
D|--7-------7-------7--------| 
A|---------------------------|
E|---------------------------|

to 2.05:
e|---------------------------|
B|-x5-x5-x5-x5x5-x5x5--------|
G|-x5-x5-x5-x5x5-x5x5--------|
D|-x7-x7-x7-x7x7-x7x7--------| 
A|---------------------------|
E|---------------------------|

to 2.33:
e|---------------------------------------|
B|--------------------8-8-8-8-8-8--------|
G|--8-8-8-8-8-8-8-8-8-8-8-8-8-8-8--------|
D|--8-8-8-8-8-8-8-8-8-8-8-8-8-8-8--------| 
A|--6-6-6-6-6-6-6-6-6-6-6-6-6-6-6--------|
E|---------------------------------------|

===========================================================================

x Mute note

===========================================================================

Tabbed by: EA

www.sofasurfers.info
Tap to rate this tab
 
# A B C D E F G H I J K L M N O P Q R S T U V W X Y Z