Sofia Nizharadze - Sing My Song tab

This is one of the six songs from the Georgian national Eurovision final 2010. 
This is the studio version; the text on the version performed in the national 
final is slightly different.

e|----------------|------0---------|
B|------1-0-------|----------1-----|
G|----2-----2---0-|----0---0---0---|
D|--2---------2---|--2-----------2-|
A|0---------------|3---------------|
E|----------------|----------------|
  You          make me wanna live

e|------1-0-------|----------------|
B|----3-----3---3-|------3---------|
G|--2---------2---|----2-----2-----|
D|0---------------|--3-----3---3---|
A|----------------|2-------------2-|
E|----------------|----------------|
  again            You,         hear

e|------0---------|----------------|
B|----------3-----|------1-0-------|
G|----1---------1-|----2-----2---2-|
D|--------2---2---|--2---------2---|
A|--2-------------|0---------------|
E|0---------------|----------------|
   my song through all the pain

e|------0---------|------0---------|
B|----------1-----|----------2-----|
G|----0---0---0---|----3---3---3---|
D|--2-----------2-|--4-----------4-|
A|3---------------|4---------------|
E|----------------|----------------|
I believe we値l meet again, somewhere

e|------1-0-------|--0-----1-------|
B|----3-----3-----|3---3-----3---3-|
G|--2---------2---|------2-----2---|
D|0-------------0-|----------------|
A|----------------|----------------|
E|----------------|----------------|
  magical

e|------1-0-------|------5---------|
B|----3-----3---3-|----4---4-------|
G|--2---------2---|--4-------4---4-|
D|0---------------|4-----------4---|
A|----------------|----------------|
E|----------------|----------------|
And I know that it's the reason why I知 living

e|5-----5---5---5-|4---------------|
B|--4-------------|3---------------|
G|----4---4-------|----------------|
D|------------4---|----------------|
A|----------------|----------------|
E|----------------|----------------|
  for                     So sing my

e|------1-0-------|------0---------|
B|----3-----3---3-|----------3-----|
G|--2---------2---|----1---------1-|
D|0---------------|--------2---2---|
A|----------------|--2-------------|
E|----------------|0---------------|
  song,              can you feel me

e|----------------|------0---------|
B|------1-0-------|----------------|
G|----2-----2---2-|----0-----------|
D|--2---------2---|--2-------------|
A|0---------------|3---------------|
E|----------------|----------------|
  breathing?             I know I知

e|------1-0-------|------0---------|
B|----3-----3---3-|----------3-----|
G|--2---------2---|----1---------1-|
D|0---------------|--------2---2---|
A|----------------|--2-------------|
E|----------------|0---------------|
  far away from you,     but I知 still

e|----------------|----------------|
B|------1-0-------|1---------------|
G|----2-----2---2-|----------------|
D|--2---------2---|----------------|
A|0---------------|----------------|
E|----------------|----------------|
  reaching                So sing my

e|------1-0-------|------0---------|
B|----3-----3---3-|----------3-----|
G|--2---------2---|----1---------1-|
D|0---------------|--------2---2---|
A|----------------|--2-------------|
E|----------------|0---------------|
  song,                can you feel me 

e|----------------|------0---------|
B|------1-0-------|----------1-----|
G|----2-----2---2-|----0-------0---|
D|--2---------2---|--2-----2-----2-|
A|0---------------|3---------------|
E|----------------|----------------|
  dreaming?               And it痴 a

e|------1-0-------|------0---------|
B|----3-----3---3-|----------3-----|
G|--2---------2---|----1---------1-|
D|0---------------|--------2---2---|
A|----------------|--2-------------|
E|----------------|0---------------|
dream I dare to dream,           I'm

e|----------------|----------------|
B|------1-0-------|----------------|
G|----2-----2---2-|----------------|
D|--2---------2---|----------------|
A|0---------------|0---------------|
E|----------------|----------------|
  singing

You are the one I知 looking for
You  I知 not crying anymore
I will never lose my hope, I feel my land is strong
And I know that it's the reason why I知 living for

So sing my song, can you feel me breathing?
I know I知 far away from you but I知 still reaching
So sing my song, can you feel me dreaming?
And it痴 a dream I dare to dream, I知 singing

All my life I知 searching for a peaceful shining star
I will come to you no matter where you are

So sing my song, can you feel me breathing?
I know I知 far away from you but I知 still reaching
So sing my song

It痴 a dream I dare to dream; sing my song
Tap to rate this tab
 
# A B C D E F G H I J K L M N O P Q R S T U V W X Y Z