Song name
# A B C D E F G H I J K L M N O P Q R S T U V W X Y Z

Soft Cell - Tainted Love tab

Tuning: E, A, D, G

Tainted Love by Soft Cell
Tabbed by Tony Bond

Verse:

G|-------------------------------------------------------------------------|
D|-------------------------------------------------------------------------|
A|------------6-6---------------------6-6---------------------6-6----------|
E|--3-3--6-6-------6-8------3-3--6-6-------6-8------3-3--6-6------6-8------|

G|-------------------------------------------------------------------------|
D|-------------------------------------------------------------------------|
A|------------6-6-----------------------6-6--------------------------------|
E|--3-3--6-6-------6-8--------3-3--6-6-------6-8---------------------------|


Bridge:

G|-------------------------------------------------------------------------|
D|-------------------------------------------------------------------------|
A|-------------------------------------------------------------------------|
E|--3-3-3-3---6-6-6-6------------------------------------------------------|
 
Verse:

G|-------------------------------------------------------------------------|
D|-------------------------------------------------------------------------|
A|------------6-6---------------------6-6---------------------6-6----------|
E|--3-3--6-6-------6-8------3-3--6-6-------6-8------3-3--6-6------6-8------|

G|-------------------------------------------------------------------------|
D|-------------------------------------------------------------------------|
A|------------6-6-----------------------6-6--------------------------------|
E|--3-3--6-6-------6-8--------3-3--6-6-------6-8---------------------------|


Bridge:

G|-------------------------------------------------------------------------|
D|-------------------------------------------------------------------------|
A|-------------------------------------------------------------------------|
E|--3-3-3-3---6-6-6-6------------------------------------------------------|




Chorus:

G|-------------------------------------------------------------------------|
D|-------------------------------------------------------------------------|
A|------------------------------------6-6-6-6-6-6-6-6----------------------|
E|--3-3-3-3-3-3-3-3--6-6-6-6-6-6-6-6-------------------8-8-8-8-8-8-8-8-----|

G|-------------------------------------------------------------------------|
D|-------------------------------------------------------------------------|
A|-------------------------------------------------------------------------|
E|--8-8-8-8-8-8-8-8--------------------------------------------------------| Verse:

G|-------------------------------------------------------------------------|
D|-------------------------------------------------------------------------|
A|------------6-6---------------------6-6---------------------6-6----------|
E|--3-3--6-6-------6-8------3-3--6-6-------6-8------3-3--6-6------6-8------|

G|-------------------------------------------------------------------------|
D|-------------------------------------------------------------------------|
A|------------6-6-----------------------6-6--------------------------------|
E|--3-3--6-6-------6-8--------3-3--6-6-------6-8---------------------------|


Bridge:

G|-------------------------------------------------------------------------|
D|-------------------------------------------------------------------------|
A|-------------------------------------------------------------------------|
E|--3-3-3-3---6-6-6-6------------------------------------------------------|





 
Verse:

G|-------------------------------------------------------------------------|
D|-------------------------------------------------------------------------|
A|------------6-6---------------------6-6---------------------6-6----------|
E|--3-3--6-6-------6-8------3-3--6-6-------6-8------3-3--6-6------6-8------|

G|-------------------------------------------------------------------------|
D|-------------------------------------------------------------------------|
A|------------6-6-----------------------6-6--------------------------------|
E|--3-3--6-6-------6-8--------3-3--6-6-------6-8---------------------------|


Bridge:

G|-------------------------------------------------------------------------|
D|-------------------------------------------------------------------------|
A|-------------------------------------------------------------------------|
E|--3-3-3-3---6-6-6-6------------------------------------------------------|




Chorus:

G|-------------------------------------------------------------------------|
D|-------------------------------------------------------------------------|
A|------------------------------------6-6-6-6-6-6-6-6----------------------|
E|--3-3-3-3-3-3-3-3--6-6-6-6-6-6-6-6-------------------8-8-8-8-8-8-8-8-----|

G|-------------------------------------------------------------------------|
D|-------------------------------------------------------------------------|
A|-------------------------------------------------------------------------|
E|--8-8-8-8-8-8-8-8--------------------------------------------------------| 

Verse:

G|-------------------------------------------------------------------------|
D|-------------------------------------------------------------------------|
A|------------6-6---------------------6-6---------------------6-6----------|
E|--3-3--6-6-------6-8------3-3--6-6-------6-8------3-3--6-6------6-8------|

G|-------------------------------------------------------------------------|
D|-------------------------------------------------------------------------|
A|------------6-6-----------------------6-6--------------------------------|
E|--3-3--6-6-------6-8--------3-3--6-6-------6-8---------------------------|


Bridge:

G|-------------------------------------------------------------------------|
D|-------------------------------------------------------------------------|
A|-------------------------------------------------------------------------|
E|--3-3-3-3---6-6-6-6------------------------------------------------------|
Verse:

G|-------------------------------------------------------------------------|
D|-------------------------------------------------------------------------|
A|------------6-6---------------------6-6---------------------6-6----------|
E|--3-3--6-6-------6-8------3-3--6-6-------6-8------3-3--6-6------6-8------|

G|-------------------------------------------------------------------------|
D|-------------------------------------------------------------------------|
A|------------6-6-----------------------6-6--------------------------------|
E|--3-3--6-6-------6-8--------3-3--6-6-------6-8---------------------------| 

Verse:

G|-------------------------------------------------------------------------|
D|-------------------------------------------------------------------------|
A|------------6-6---------------------6-6---------------------6-6----------|
E|--3-3--6-6-------6-8------3-3--6-6-------6-8------3-3--6-6------6-8------|

G|-------------------------------------------------------------------------|
D|-------------------------------------------------------------------------|
A|------------6-6-----------------------6-6--------------------------------|
E|--3-3--6-6-------6-8--------3-3--6-6-------6-8---------------------------|
Tap to rate this tab
# A B C D E F G H I J K L M N O P Q R S T U V W X Y Z