Song name
# A B C D E F G H I J K L M N O P Q R S T U V W X Y Z

Soft Cell - Heat tab

Song: Heat
Band: Soft Cell
Album: The Art of Falling Apart
Year: 1983
Tabber: beranger80@hotmail.com



Intro (0:00)

Eb




Main Riff (0:06)

e-------------------------------|
b-------------------------------|
g-----3-------------------------|
d-------3-4---------------------|
a-----------6-------1-1-4-------|
d-------------------------------|



Intro then Verse (0:21)
                        1.                               2.    
e----------------------|--------------------------------|--------||
b----------------------|--------------------------------|--------||
g----------------------|--3-3---3-3--3-3---3-3---3-3-3--|--------||
d--4-6-7-----6-8-9-----|--------------------------------|---0----||
a----------------------|--------------------------------|--------||
d----------------------|--------------------------------|--------||



Chorus (1:15)


e-------------------------------|
b-------------------------------|
g-----3-------------------------|
d-------3-4---------------------|
a-----------6-------1-1-4-------|
d-------------------------------|



Bridge (1:43)

e--------------------------------------|
b--------------------------------------|
g--------------------------------------|
d-----4----6----1------4----6----8-----|
a-----4----6----1------4----6----8-----|
D-----4----6----1------4----6----8-----|



Verse  (1:56)
                        1.     2. 4. 6.   3. 5.            
e----------------------|------|----------|--------------------------------||
b----------------------|------|----------|--------------------------------||
g----------------------|------|----------|--3-3---3-3--3-3---3-3---3-3-3--||
d--4-6-7-----6-8-9-----|--1---|----8-----|--------------------------------||
a----------------------|------|----------|--------------------------------||
d----------------------|------|----------|--------------------------------||



Chorus (2:38)

e-------------------------------|
b-------------------------------|
g-----3-------------------------|
d-------3-4---------------------|
a-----------6-------1-1-4-------|
d-------------------------------|



Bridge, Verse 4 & to the end (3:06)

e--------------------------||
b--------------------------||
g--------------------------||
d-----8----6----4----------||
a-----8----6----4----------||
d-----8----6----4----------||
Tap to rate this tab
 
# A B C D E F G H I J K L M N O P Q R S T U V W X Y Z