Song name
# A B C D E F G H I J K L M N O P Q R S T U V W X Y Z

Soft Cell - Tainted Love tab

-------------------------------------------------------------------------------
                    Tainted Love guitar riff/bass tab
-------------------------------------------------------------------------------
Tabbed by: Cebw

Tuning: Guitar-Capo on 3, Bass-Standard

Chords: Em, G, C, G

(Intro - Guitar) 
e|---------------------------------------------------------------------------|
B|---------1-1-------------------1-1-----------------------------------------|
G|-----0-0-----0-2----------0-0------0-2-------------------------------------|
D|-2-2-----------------2-2---------------------------------------------------|
A|---------------------------------------------------------------------------|
E|---------------------------------------------------------------------------|


(Intro - Bass)
G|-------------3-5-------------------3-5-------------------------------------|
D|-5-5-----------------5-5---------------------------------------------------|
A|---------------------------------------------------------------------------|
E|---------------------------------------------------------------------------|


(Verse)
Repeat intro 7x ending right before "and I toss and turn I can't sleep at 
night" (Em, G)

(Chorus)
(E, G, C, Am, Am)
Bass repeats intro 4x (no guitar riff)

Guitar repeats intro 2x ONLY DURING "tainted love, oh oh, tainted love" 
(Back to Em, G, C, G)

Repeat throughout song.
Tap to rate this tab
# A B C D E F G H I J K L M N O P Q R S T U V W X Y Z