Soft Machine - Hazard Profile tab

Hazard Profile
Soft Machine
H = hammer
p = pull off
s = slide 

Hazard Profile Part 1
Intro  Drum roll crescendo
Main Riff
   (repeat many times)
e|---------------------------------------|--------------------------------------|
B|---------------------------------------|--------------------------------------|
G|----------------3---5---5---x----------|-------------3---5---5---x------------|
D|----------3h5---------------------1h3--|-------3h5-------------------3h5--3h5-|
A|-3---3------------------------1h3------|-3---3--------------------------------|
E|---------------------------------------|--------------------------------------|


Bridge Riff
	(4 times)
e|---------------------------------------|-------------------------------------|
B|---------------------------------------|-------------------------------------|
G|----------------3---5---5--3---3-------|-----3--3------3-h-5---5-p-3---------|
D|----------3h5--------------------3---3-|--5---------5------------------------|
A|--3---3--------------------------------|-------------------------------------|
E|---------------------------------------|-------------------------------------|


							*Guitar Solo (working on it)
e|---------------------------------------|-------------------------------------|
B|---------------------------------------|-------------------------------------|
G|---------------------------------------|-------------------------------------|
D|--3~~~~~~~-----------------------------|-------------------------------------|
A|--3~~~~~~~-----------------------------|-------------------------------------|
E|---------------------------------------|-------------------------------------|



Hazard Profile part 3
 
e---------|------------------|----------------------|--------------------------|
B-8---10-s|-/15~~~----13--15-|16--16~~~~-----15--16-|-18--18~~~~~----18p15--18-|
G---------|------------------|----------------------|--------------------------|
D---------|------------------|----------------------|--------------------------|
A---------|------------------|----------------------|--------------------------|
E---------|------------------|----------------------|--------------------------|

							
e|-15--15~~~~----15--15-|17---17~~~----------15--17|--18--20--18---17h18~~~~~---|
B|----------------------|--------------------------|----------------------------|
G|----------------------|--------------------------|----------------------------|
D|----------------------|--------------------------|----------------------------|
A|----------------------|--------------------------|----------------------------|
E|----------------------|--------------------------|----------------------------|

Hazard Profile part 4
 								
e |----------------------------|------------------------------------|
B |----------------------------|------------------------------------|
G |----------------------------|--------------------------3---------|
D |-3h5----3h5--------3---5p3--|--s5-3----------3-------3---3--5-5--|
A |---------------3-5----------|-------5----3-5-----3-5-------------|
E |----------------------------|------------------------------------|


e |------------------------------------|----------------------------|
B |-3--6-------------3-5-3-----5~~~~---|----------------------------|
G |------5--5p4p3--5-------5-3---------|------------3---------------|
D |------------------------------------|--5~~---3-5------------3----|
A |------------------------------------|--------------5------3---5--|
E |------------------------------------|-------------------5--------|


Please send comments and correction to camtaylor@techemail.com 
(tabbed Aug 21, 2010)


Tap to rate this tab
 
# A B C D E F G H I J K L M N O P Q R S T U V W X Y Z