Song name
# A B C D E F G H I J K L M N O P Q R S T U V W X Y Z

Soft Machine - Thank You Pierrot Lunaire tab

this is the piano/organ arranged for guitar, "Thank you Pierrot Lunaire" by Soft Machine 
moderately slow beginning:

e-------------------------------------------------|
b-------------------------------------------------|
g-5-5-4--5-5-4--5-5-4-2-4-2-4---------------------|
d-------------------------------------------------|
a-------------------------------------------------|
e-------------------------------------------------|

use wah-wah for this part or just do it normally:

e----------------------------|-7-7------|------------------|
b----------------------------|----8-----|------------------|
g-9-7-9--9-7-9--9-7----------|-----9----|-9-7-9--9-7-------|
d-------------------9-8-7----|------7---|------------9-8-7-|
a----------------------------|-------0--|------------------|
e----------------------------|--------0-|------------------|

thats pretty much it. sounds best when played with the song or singing it to the guitar. 
comments, corrections, requests sydbrown1970@yahoo.com.
Tap to rate this tab
 
# A B C D E F G H I J K L M N O P Q R S T U V W X Y Z