Song name
# A B C D E F G H I J K L M N O P Q R S T U V W X Y Z

Soft Machine - Moon In June tab

Help us improve GuitareTab! Take a short survey!
this is the solo for soft machines "moon in june". im guessing its played by a bass but 
for the guitar:

1:25 start

-------------|--------------------------------------------------------------|
-------------|--------------------------------------------------------------|
-------------|--------------------------------------------------------------|
---------2p3-|-5p7-5p7-7777-5--5p7-7-5--5-7-7/9-----------------------------|
-----3p5-----|---------------------------------7-7p9-9p10-10p12-15----------|
-5p7---------|--------------------------------------------------------------|

1:36

---------------------------------------|------------------------------------|
---------------------------------------|------------------------------------|
---------------------------------------|------------------------------------|
-7-9-11-14--10x12-10x12-10x12-10x12-10-|-10x12-10-10------------------------|
--------------------------------------9|------------------------------------|
---------------------------------------|------------------------------------|

1:41

----------------------------------------------------------------------------|
----------------------------------------------------------------------------|
----------------------------------------------------------------------------|
10-12-14-17--1616/1414/1212/99-7/9-9-9p12-7p9-77-7/9-7-999------------------|
----------------------------------------------------------7-----------------|
----------------------------------------------------------------------------|

1:50

------|---------------------------------------------------------------------|
------|---------------------------------------------------------------------|
------|-------12p14-12-14b-12--1212-1414-1414-1616-18b18b--16-18-16-18b18b--|
7p9-77|--9p11---------------------------------------------------------------|
------|---------------------------------------------------------------------|
------|---------------------------------------------------------------------|

2:02 end

this is 100% accurate in my opinion and the best song ive tabbed. try to play along with 
until you get comfortable with the timing. any comments or corrections: sydbrown1970@yahoo.com
Related for Moon In June tab