Song name
# A B C D E F G H I J K L M N O P Q R S T U V W X Y Z

Soft Machine - Dedicated To You But You Werent Listening tab

Dedicated To You But You Werent Listening (1969)

Famous parabolic versions              Songs that promise
Songs and versesa,Handy captions       Photographs of
Universal maximillion                  Eight rare cases
Don't use magnets, Geophysics          carry you back
------------------------------------------------------5------------------|
-7--0--3--5-2--0------------------------2----3----5----------------------|
-------------------2p3-2-------------------------------------------------|
-------------------------------------------------------------------------|
-------------------------------------------------------------------------|
-------------------------------------------------------------------------|

Beauty, sleep, love, sadness
Real-life action, horror, madness
Chickenpox and crawling gladness
Wholesome, healthfood, homepride, satisfied
-------------------------------------------|
-7--7--7--7--7--7--7--7--7--7--7--7--------|
--4--4--4--4--4--4--4--4--4--4--4--4-------|
-------------------------------------------|
-------------------------------------------|
-------------------------------------------|

Do I dream that something's missing?    Hungry, thirsty, open off-peak mind
Can it be that something's happening    Wash me, paint me, but please...
Seemingly it's nothing happening        Cure my doctor dont swallow him down
Something outside gives out hunger      Face my mirror......electricity
---------------------------------------------------------------------------|
0--3--7----3----7----5------3---2---------0---6-----0--5----3--2-----------|
----------------------------------3-2------------0--------0--------4----2--|
---------------------------------------------------------------------------|
---------------------------------------------------------------------------|
---------------------------------------------------------------------------|

Give me the truth,  give me the truth,  give me the truth, tell me
Give me a chance,   give me chance,     give me a chance
Give me the cure,   give me the cure,   give me the cure
----------------------------------------------------------------------------|
-6---6--6---6-------5---5--5---5--------3---3--3---3------------------------|
-----------------------------------------------------------1---0------------|
----------------------------------------------------------------------------|
----------------------------------------------------------------------------|
----------------------------------------------------------------------------|

When I was young, the sky was blue  And everyone knew what to do
The night was cool, the moon was bright,  The air was clear with oxygen
The stars were there, and in my eyes  Were thousands of *chrysanthemums*

-------0-----------------0-----------------0------------0------------*(5)*-|
-----3-----------------3-----------------3------------3--------------------|
---2-----------------2-----------------2------------2----------------------|
-0-----------------0-----------------0------------0------------------------|
---------------------------------------------------------------------------|
---------------------------------------------------------------------------|

But now it's gone, the telly's here  Mass media, the sewer too
-0------------------0-----------------0------------0-----------------------|
--2------------------2-----------------2------------2----------------------|
---3------------------3-----------------3------------3---------------------|
----0------------------0-----------------0------------2--------------------|
---------------------------------------------------------------------------|
---------------------------------------------------------------------------|
*ending strum*
--------------------------------------------------|
--------------------------------------------------|
-1--0--1--0--1--0---------------------------------|
-0--0--0--0--0--0---3p2--0------------------------|
-0--0--0--0--0--0---------------------------------|
-0--0--0--0--0--0---------------------------------|


pretty easy song, i tried to match the guitar parts up to the lyrics, originally played 
acoustic guitar, sounds amazing on acoustic.

thanks, blake
sydbrown1970@yahoo.com
Tap to rate this tab
 
# A B C D E F G H I J K L M N O P Q R S T U V W X Y Z