Song name
# A B C D E F G H I J K L M N O P Q R S T U V W X Y Z

Softink79 - Afterall tab

E------------------|
B------------------|
G-2---2---2---2----|
D--3---3---3----3--|  2+CHORUS
A---0---0----------|
E-----------0----0-|

E-------------------------       -------------------------------|
B-------------------------       -------------------------------|
G------------------------- 4+    -------------9-9-9-7-7-7-------|
D-5-5-5-7-7-7-5-5-5-3-3-3-       -7-7-7-9-9-9-9-9-9-7-7-7-------|4+ Let the last strum ring
A-5-5-5-7-7-7-5-5-5-3-3-3-       -7-7-7-9-9-9-7-7-7-5-5-5-------|
E-3-3-3-5-5-5-3-3-3-1-1-1-       -5-5-5-7-7-7-------------------|

And then after you let the chord ring go back to the CHORUS

If you like this song thanks. I made it up........ Email me at softink79@msn.com
Tap to rate this tab
 
# A B C D E F G H I J K L M N O P Q R S T U V W X Y Z