Song name
# A B C D E F G H I J K L M N O P Q R S T U V W X Y Z

Soil - Pride tab

Band: soil
Song: pride



intro
|--------------------------|
|--------------------------|
|--------------------------|
|-22---00--33--22---00--33-|x4
|-22---00--33--22---00--33-|
|-22---00--33--22---00--33-|

verse                  
|------------------|  
|------------------|  
|------------------|  
|-22XXXXXX0003~333-|x4
|-22XXXXXX0003~333-|  
|-22XXXXXX0003~333-|  

chorus
|------------------|
|------------------|
|------------------|
|-22222222-0003333-|x2
|-22222222-0003333-|
|-22222222-0000333-|

|------------------|
|------------------|
|------------------|
|-99X2-225-55-4444-|x4
|-99X2-225-55-4444-|
|-99X2-225-55-4444-|

verse       this part 4x
|----------|-----------------|
|----------|-----------------|
|----------|-----------------|
|-22XXXXXX-|-22XXXXXX0003333-|
|-22XXXXXX-|-22XXXXXX0003333-|
|-22XXXXXX-|-22XXXXXX0003333-|

chorus
|------------------|
|------------------|
|------------------|
|-22222222-0003333-|x4
|-22222222-0003333-|
|-22222222-0000333-|

|------------------|
|------------------|
|------------------|
|-99X2-225-55-4444-|x4
|-99X2-225-55-4444-|
|-99X2-225-55-4444-|

solo
|-15~~~14~~~17~~~12~~~15~~~14~~~10~~~12~~~|
|-----------------------------------------|
|-----------------------------------------|
|-----------------------------------------|
|-----------------------------------------|
|-----------------------------------------|

solo backing
|-----------------------------------------------|
|-----------------------------------------------|
|-9999999/e/1212121212121212/7777777/9/tttttttt-|
|-XXXXXXX/X/XXXXXXXXXXXXXXXX/XXXXXXX/X/XXXXXXXX-|x4
|-7777777/9/1010101010101010/5555555/7/88888888-|
|-----------------------------------------------|

verse (let notes ring out)
|----------------|
|----------------|
|----------------|
|5---4---0---2---|x2
|5---4---0---2---|
|5---4---0---2---|

|------------------|
|------------------|
|------------------|
|-22XXXXXXXXXXXXXX-|x2
|-22XXXXXXXXXXXXXX-|
|-22XXXXXXXXXXXXXX-|

|--------------------------|
|--------------------------|
|--------------------------|
|-22---00--33--22---00--33-|
|-22---00--33--22---00--33-|
|-22---00--33--22---00--33-|

|------------------|
|------------------|
|------------------|
|-99X2-225-55-4444-|x8
|-99X2-225-55-4444-|
|-99X2-225-55-4444-|

end of song
Tap to rate this tab
 
# A B C D E F G H I J K L M N O P Q R S T U V W X Y Z