Song name
# A B C D E F G H I J K L M N O P Q R S T U V W X Y Z

Soil - Give It Up tab

Song: Give it Up
Artist: Soil
Album: True Self Album.
Released: 04/01/2006

I highly recommend an overdrive pedal for this song, or at least distortion.
It is also tabbed to standard tunning.I've tried to be as thorough as possible.

ALSO IMPORTANT. Pay attention to the stuff in {brakets} The french mustache ones



Intro (with over drive):
                                                {~ ~REPEAT this measure x4~}
|-----------------------------------------------|--------------------------|
|-----------------------------------------------|--------------------------|
|-----------------------------------------------|-2-4----------------------|
|----------------------2-4----------------------|-2-4-3-3-3-3-3--1-1-1-1-1-|
|3-3-3-3-3--1-1-1-1-1------3-3-3-3-3--1-1-1-1-1-|-----3-3-3-3-3--1-1-1-1-1-|
|-----------------------------------------------|--------------------------|


       {~ ~ REPEAT this Section 3 times~ ~ ~ ~ ~ ~ ~ ~ ~ ~ ~}
|------|-----------------------------------------------------|
|------|-----------------------------------------------------|
|-2--4-|-----------------------------------------------------|
|-2--4-|-----------------------------------------------------|
|------|---0-2-0-2-0--0-2-0-2-0----0-2-0-2-0--0-2-0-2-0---0-0|
|------|---0-2-0-2-0--0-2-0-2-0----0-2-0-2-0--0-2-0-2-0---0-0|

{~ ~let these notes ring~ ~ }
{~ ~Repeat this measure x2~ } {~ ~Repeat this Measure x 4~~}
|---------------------------| |----------------------------|
|---------------------------| |----------------------------|
|---------------------------| |-----------------------2--4-|
|--6----8----9---8--9-------| |-3-3-3-3-3--1-1-1-1-1--2--4-|
|--6----8----9---8--9-------| |-3-3-3-3-3--1-1-1-1-1-------|
|--4----6----7---6--7-------| |----------------------------|

Time Check [1:00]

{~ ~ REPEAT this Section 3 times~ ~ ~ ~ ~ ~ ~ ~ ~ ~ ~}
|-----------------------------------------------------|
|-----------------------------------------------------|
|-----------------------------------------------------|
|-----------------------------------------------------|
|---0-2-0-2-0--0-2-0-2-0----0-2-0-2-0--0-2-0-2-0---0-0|
|---0-2-0-2-0--0-2-0-2-0----0-2-0-2-0--0-2-0-2-0---0-0|


{~ ~let these notes ring~ ~  ~ ~ ~ ~ ~ ~ ~ ~ ~ ~ ~ ~ ~ ~}
{~ ~Repeat this measure x3~ } 
|---------------------------|---------------------------| 
|---------------------------|---------------------------|
|---------------------------|---------------------------| 
|--6----8----9---8--9-------|--6----8----9---8--9~~~~~~-|
|--6----8----9---8--9-------|--6----8----9---8--9~~~~~~-|
|--4----6----7---6--7-------|--4----6----7---6--7~~~~~~-|

{ Your going to Have to hit that last chord hard because,
 It rings for about 6 seconds and you have to slide down from it}

Time Check [1:45]

{Don't forget you sliding down into this next part}
{PALM REST these measures. They are two's ...not 22's}

{~ ~ Repeat this Measure x? ~ ~ }
|-------------------------------|
|-------------------------------|
|-------------------------------|
|-------------------------------| 
|-------------------------------|
|--22-22--22-22---22-22--22-22--|

{Now theres a problem.}
{Those Palm muted notes might have been distorted bass, because Soil
is a four piece band, and I just realized that guitar is in the backround?

A little research note:

Soil's Myspace explains that Jasin Todd, is not part of the band, however he 
does play some live guitar with them, I'm not sure if that is the reason for the
distorted notes or not.*}

During those 2's the intro beat fades in.

Time check [2:10]


{~ ~Repeat this Measure x 3~~}
|----------------------------||----------------------------|
|----------------------------||----------------------------|
|----------------------------||----------------------------|
|-3-3-3-3-3--1-1-1-1-1-------||-3-3-3-3-3--1-1-1-1-1-------|
|-3-3-3-3-3--1-1-1-1-1--2222-||-3-3-3-3-3--1-1-1-1-1-------|
|-----------------------2222-||----------------------------|

{~ ~let these notes ring~ ~ }
{~ ~Repeat this measure x4~ } {~ ~Repeat this Measure x 4~~}
|---------------------------| |----------------------------|
|---------------------------| |----------------------------|
|---------------------------| |-----------------------2--4-|
|--6----8----9---8--9-------| |-3-3-3-3-3--1-1-1-1-1--2--4-|
|--6----8----9---8--9-------| |-3-3-3-3-3--1-1-1-1-1-------|
|--4----6----7---6--7-------| |----------------------------|


Okay. And thats It.
Comments and Ratings are highly appreicated.

Email me at bloodhype@yahoo.com 
for suggestions, recommendations, corrections and comments.

*
link to the blog explaining the jasin todd thing:
http://blog.myspace.com/index.cfm?fuseaction=blog.view&friendID=5634037&blogID=409195240
*
Tap to rate this tab
 
# A B C D E F G H I J K L M N O P Q R S T U V W X Y Z