Song name
# A B C D E F G H I J K L M N O P Q R S T U V W X Y Z

Soil - My Own tab

Band: Soil
Song: My Own
Album: Scars
Tabbed by: Brad Hibbard
Email: coolbeg334433@yahoo.com


Tuning:Drop D and down 2 whole steps


intro


  (0:01)

|-----------------------21------------------------|
|------19---21----------------------21------------|
|-------------------------------------------------|
|-------------------------------------------------|
|-------------------------------------------------|
|-------------------------------------------------|




after first part play this
  v-virbrato  br-bend 1/2 step and release
(0:09)

|-----------------------------------------------------------------|
|--6v----3br--2-----6v--------3--2-------6v------3br--2---------6v|
|-----------------------------------------------------------------|
|-----------------------------------------------------------------|
|-----------------------------------------------------------------|
|-----------------------------------------------------------------|




(0:17)
repeat  4x
|------------------------------------------------------------------|
|------------------------------------------------------------------| 
|------------------------------------------------------------------|
|----0-0-0--0-0---0-0-0--3-1-1-------------------------------------|
|----0-0-0--------0-0-0--------------------------------------------|
|----0-0-0--------0-0-0--------------------------------------------|



Verse     repeat 8x

P.M.-Palm Mute
|---------------------------------------------------------------|    
|---------------------------------------------------------------|    
|---------------------------------------------------------------|    
|-----0----0---0---------0--0--------------0----0----0---3--1--1|     
|-----0----0---0---------------------------0----0----0----------|     
|-----0----0---0---------------------------0----0----0----------|
   p.m.   p.m.   p.m                         p.m.   p.m.  p.m.
Tap to rate this tab
# A B C D E F G H I J K L M N O P Q R S T U V W X Y Z