Song name
# A B C D E F G H I J K L M N O P Q R S T U V W X Y Z

Soil - Wide Open tab

Help us improve GuitareTab! Take a short survey!
Author/Artist:Soil
Title:Wide Open
Album:Scars
Tabbed by:Robbie K

Intro w/ Phaser
C |---------------------------------------------------------------------|
G |---------------------------------------------------------------------|
Eb|---------------------------------------------------------------------|
Bb|---------------------------------------------------------------------|
F |---------------------------------------------------------------------|
Bb|--0-4-3-0-1-0-1-3--0-4-3-0-1-0-1-3--0-4-3-0-1-0-1-3--0-4-3-0-1-0-1-3-|

C |------------------------------------------------------------------|
G |------------------------------------------------------------------|
Eb|------------------------------------------------------------------| 2x
Bb|------------------------------------------------------------------|
F |---0-4-3-0-1-0-1-3--0-4-3-0-1-0-1-3--0-4-3-0-1-0-1-3---1-1-1--1-1-|
Bb|---0-4-3-0-1-0-1-3--0-4-3-0-1-0-1-3--0-4-3-0-1-0-1-3---1-1-1--1-1-|

Verse:
C |-------------------------------------------|
G |-------------------------------------------| sometimes the chords 
Eb|-------11-11--5--5--7--------------(8-8-8)-|in ()'s are played
Bb|--------x--x--x--x--x------1-1-1---(x-x-x)-|instead of the 1's
F |--------9--9--3--3--5------1-1-1---(6-6-6)-|
Bb|-0-0------------------3333-1-1-1-----------|
    ...                  .... 

Chorus:
C |---------------------------------------------------|
G |---------------------------------------------------|
Eb|--------------------------------------------11b12--|
Bb|-0-0-0---0--0-0-0-0--0--0-0-0-0--0--0-0-0-0--x--x--|
F |-0-0-0---0--0-0-0-0--0--0-0-0-0--0--0-0-0-0--9b10--|
Bb|-0-0-0---0--0-0-0-0--0--0-0-0-0--0--0-0-0-0--------|

Post Chorus
C |----------------------------------------------------|
G |----------------------------------------------------|
Eb|----------------------------------------------------|the way they play the
Bb|-0--4--3--1----0--4--3--1---0--4--3--1--------------|1's changes a few 
F |-0--4--3--1----0--4--3--1---0--4--3--1--1-1-1-11-11-|times
Bb|-0--4--3--1----0--4--3--1---0--4--3--1--1-1-1-11-11-|

Verse
Chorus
Post Chorus
Intro 2nd part
Verse
intro first part
chorus
post chorus
chorus
post chorus
Related for Wide Open tab