Guitaretab - guitar tabs
Song name
# A B C D E F G H I J K L M N O P Q R S T U V W X Y Z

Soil - Breaking Me Down tab

Author/Artist:Soil
Title:Breaking Me Down
Album:Scars
Tabbed by:Robbie K

Intro
a)                             2x  fill b)                            4x
C |---------------------------||-------|---------------------------|
G |---------------------------||-------|---------------------------|
Eb|---------------------------||-------|---------------------------|
Bb|---------------------------||-------|---------------------------|
F |---------------------------||-------|---------------------------|
Bb|-0-3-0--0-3-0--0-3-0-3-2b~-||-0-3-0-|-00-3-0--00-3-0-00-3-0-2b~-|

Verse:
C |-----------------------------------------------------|
G |-----------------------------------------------------|
Eb|-----------------------------------------------------|
Bb|-0-3-0--------0-3-0--------0-3-0------0-3-0-----0----|
F |-0-3-0--------0-3-0--------0-3-0------0-3-0-----0----|
Bb|-0-3-0--------0-3-0--------0-3-0------0-3-0-----0----|

Chorus:
C |------------------------|
G |------------------------|
Eb|--7---------------------|
Bb|--7---------------------|
F |--5-0-6-5-(5-5)--0-6-3--|
Bb|----0-6-5-(5-5)--0-6-3--|

Verse
Chorus
Intro a)
[ Tab from: http://www.guitaretab.com/s/soil/24736.html ]
C |-----------------------------------------------------------------------|
G |-----------------------------------------------------------------------|
Eb|-------------------------------------------5---------------------------|
Bb|--6----3------------------------------6----5---------------------------|
F |--6----3-----0-3-0--0-0--0-3-0-0-0----6----3-----0-3-0--0-0--0-3-0-0-0-|
Bb|--6----3-----0-3-0--0-0--0-3-0-0-0----6----------0-3-0--0-0--0-3-0-0-0-|

C |------------------------------------------------------|
G |------------------------------------------------------|
Eb|----------------------------------------------5555555-|
Bb|----------------------------------------------5555555-|
F |-666666-33333-0-3-0--0-0--0-3-0---0-0--666666-3333333-|
Bb|-666666-33333-0-3-0--0-0--0-3-0---0-0--666666---------|
    ...... .....                           ......

Verse
Chorus  	

Outro
C |-----------------------------------------------------|
G |-----------------------------------------------------|
Eb|-----------------------------------------------------|
Bb|-----------------------------------------------------|
F |-----------------------------------------------------|
Bb|----0-3-0---0-3-0---0-3-0-3-2b-----------------------|
  |gtr2		                                        |
C |--------------- -------------------------------------|
G |-----------------------------------------------------|
Eb|-<5>-----<5>-----<5>---------------------------------|
Bb|-----------------------------------------------------|
F |-----------------------------------------------------|
Bb|-----------------------------------------------------|

   gtr1 plays same 
   gtr2 plays this
C |---------------------|
G |---------------------|
Eb|-<7><7><7><7><7><7>--|
Bb|---------------------|
F |---------------------|
Bb|---------------------|
Related for Breaking Me Down tab
Advertisement will be closed in 10 seconds