Song name
# A B C D E F G H I J K L M N O P Q R S T U V W X Y Z

Soil - Last Chance tab

------------------------Soil - The Last Chance-------------------------------

Name:AdiChief
Tuning: Standard (EADGBe)

-----------------------------------------------------------------------------


Main Riff

e|-------------------------------------------------------|
B|-------------------------------------------------------|
G|-------------------------------------------------------|
D|--------2-2h3--------2-2h3-----------------------------| x2
A|-5--5|--------5--5|--------1--1|--1-1p0--1--1|--1-1p0--|
E|-5--5|--------5--5|--------1--1|---------1--1|---------|


Verse Part 1

e|-------------------------------------------------------|
B|-------------------------------------------------------|
G|-------------------------------------------------------|
D|-------------------------------------------------------|
A|-5------------1-------------5-------------1------------|
E|-5------------1-------------5-------------1------------|


Verse Part 2

e|---------------------------6---------------------------|
B|----------8-6-5-6------------10-8-6--------------------|
G|-7-9-10-7---------7-9-10-7-----------------------------|
D|-------------------------------------------------------| x2
A|-------------------------------------------------------|
E|-------------------------------------------------------|


Bridge

e|-----------------------------|
B|-15---15-15-15-15---15-15-15-|
G|-15---15-15-15-14---14-14-14-|
D|-----------------------------| x4
A|-----------------------------|
E|-----------------------------|

or

e|-----------------------------|
B|-----------------------------|
G|-15~~~15~15~15~14~~~14~14~14~|
D|-----------------------------| x4
A|-----------------------------|
E|-----------------------------|


Interlude Part 1

e|---------------------------------------------|
B|---------------------------------------------|
G|---------------------------------------------|
D|---------------------------------------------| x2
A|-x-5---5|---x-5---5|---x-1---1|---x-1---1|---|
E|-x-5---5|---x-5---5|---x-1---1|---x-1---1|---|


Interlude Part 2

e|------------------------------------------------------------|
B|------------------------------------------------------------|
G|------------------------------------------------------------|
D|---------2-2h3---------2-2h3--------------------------------| x2
A|-x-5--5|-------x-5--5|-------x-1--1|--1-1p0-x-1--1|--1-1p0--|
E|-x-5--5|-------x-5--5|-------x-1--1|--------x-1--1|---------|


e|-----------------------------------------------------|
B|-----------------------------------------------------|
G|-----------------------------------------------------|
D|-----------------------------------------------------|
A|-5~~~~~~~~~5-5-5-1---------5~~~~~~~~~5-5-5-1---------|
E|-5~~~~~~~~~5-5-5-1---------5~~~~~~~~~5-5-5-1---------|
             .....                     .....



Guitar 1

e|---------------|
B|---------------|
G|---------------|
D|-12~~~12~12~12~| x8
A|---------------|
E|---------------|


Guitar 2
 
e|-----------------------------|
B|-----------------------------|
G|-15~~~15~15~15~14~~~14~14~14~|
D|-----------------------------| x4
A|-----------------------------|
E|-----------------------------|

Then (but very aggressive)

e|-----------------------------|
B|-----------------------------|
G|-15~~~15~15~15~14~~~14~14~14~|
D|-----------------------------| x4
A|-----------------------------|
E|-----------------------------|


The End

e|-----------------------------------|
B|-----------------------------------|
G|-----------------------------------|
D|-----------------------------------| x2
A|-5--5555555555555-1--1111111111111-|
E|-5--5555555555555-1--1111111111111-|
      .............    .............

e|----|
B|----|
G|----|
D|----|
A|-5|-|
E|-5|-|

ENJOY THE SONG ;-)


Tablature Legend
----------------
x - dead note
h - hammer on
p - pull off
~ - vibrato
. - palm mute
Tap to rate this tab
 
# A B C D E F G H I J K L M N O P Q R S T U V W X Y Z