Song name
# A B C D E F G H I J K L M N O P Q R S T U V W X Y Z

Soil - Fight For Life tab

Fight for Life
Soil
True Self (2006)

Tuning: Drop Db (DbAbDbGbAbEb)

There is not really any of indication of rhythm in this tab,
but it's pretty easy to figure out.

x - palm mute
h - hammer on
p - pull off
^ - bend
^(x) - bend up to that note.

Intro (Gtr. 1) (0:00)

Eb|-10h11-11-11-11-11-11-11-11p10-10-10-10-10-10-10|
Bb|------------------------------------------------|
Gb|------------------------------------------------|x2
Db|------------------------------------------------|
Ab|------------------------------------------------|
Db|------------------------------------------------|

(0:04)
           
Gtr. 1.
                                                     __  
Eb|-10h11-11-11-11-11-11-11-11p10-10-10-10-10-10-10|   |
Bb|------------------------------------------------|   |
Gb|------------------------------------------------|   |
Db|------------------------------------------------|   |
Ab|------------------------------------------------|   |
Db|------------------------------------------------|   |
                                                       | REPEAT UNTIL VERSE
Gtr. 2                                                 |
                                                       | 
Eb|------------------------------------------------|   |     
Bb|------------------------------------------------|   |
Gb|------------------------------------------------|   |
Db|------------------------------------------------|   |
Ab|------------------------------------------------|   |
Db|-1-----1--1--1------------1p0--0--0--0----------| __|  

Verse (0:21)

Gtr. 1.

Eb|---------------------------------|
Bb|---------------------------------|
Gb|---------------------------------| REPEAT UNTIL
Db|---------------------------------|   PRECHORUS
Ab|-0-------------------------------|
Db|---1-1-1-1-1-3-3-3p0-0-0-0-0-0-0-|
      x x x x x x x     x x x x x x

Prechorus (00:46)

Gtr.1
                                                        __
Eb|------------------------|--------------------------|   |  
Bb|------------------------|--------------------------|   |
Gb|------------------------|--------------------------|   |
Db|------------------------|--------------------------|   |  
Ab|-12\--0--0-0-0-0-1-1-0-0|-13\--1-1-1-1-3-3-3-0-0-0-|   |   
Db|-12\--0--0-0-0-0-1-1-0-0|-13\--1-1-1-1-3-3-3-0-0-0-|   |
                                                          |
                                                          | x2
Eb|------------------------|-----------------|            |
Bb|------------------------|-----------------|            |
Gb|------------------------|-----------------|            |
Db|------------------------|----7------7-----|            |
Ab|-12\--0--0-0-0-0-1-1-0-0|-6----6--6---6-8-|            |
Db|-12\--0--0-0-0-0-1-1-0-0|-----------------|          __|

Chorus (0:55)

Gtr.1
                                                   
Eb|------------------------|---------------------|     
Bb|------------------------|---------------------|   
Gb|------------------------|---------------------|   
Db|------0--0--------0--0--|------2--2--------2--|     
Ab|------------------------|-0--0------0-1--1----|    
Db|-0--0------0-1--1------1|---------------------| 
                                                          
Verse

Prechorus

Chorus (x2)

Bridge (1:46)

Gtr. 1 (/w sitar effect)
                                                     __   
Eb|--------------------------|---------------------|   |  
Bb|--------------------------|---------------------|   |
Gb|--------------------------|---------------------|   | REPEAT UNTIL END 
Db|------0--0-0------0--0-0--|------2--2--------2--|   | OF BRIDGE
Ab|--------------------------|-0--0------0-1--1----|   |   
Db|-0--0------0-1--1--------1|---------------------| __| 

Gtr. 2 (/w effect) (2:12)
                                       __
Eb|----------------------------------|   |
Bb|-10-11-15-11-10--10-11-15-11-10---|   |
Gb|----------------------------------|   |
Db|----------------------------------|   |
Ab|----------------------------------|   |
Db|----------------------------------|   |
                                         | REPEAT UNTIL END
Eb|--------------------------|           | OF BRIDGE
Bb|-10-11-15-11-10--17^(18)--|           |
Gb|--------------------------|           |
Db|--------------------------|           | 
Ab|--------------------------|           |
Db|--------------------------| __________|


Intro (with different lead ending on Gtr. 1)(2:35)

Gtr. 1.

Eb|-11^--13^-15^-|
Bb|--------------|
Gb|--------------|
Db|--------------|
Ab|--------------|
Db|--------------|

Solo (2:37)

I'm not much of a soloist, so I couldn't tab out the solo, but here's the backing;

Gtr. 2.

Eb|-------------|------------|
Bb|-------------|------------|
Gb|-------------|------------|
Db|-0-----1-----|7-----8-----|
Ab|-0-----1-----|7-----8-----|
Db|-0-----1-----|7-----8-----|

Eb|---------------|--------------|
Bb|---------------|--------------|
Gb|---------------|--------------|
Db|-0--0-0-0-0-0-0|1--1-1-1-1-1-1|
Ab|-0--0-0-0-0-0-0|1--1-1-1-1-1-1|
Db|-0--0-0-0-0-0-0|1--1-1-1-1-1-1|
       x   x   x      x   x   x

Eb|---------------|--------------|
Bb|---------------|--------------|
Gb|---------------|--------------|
Db|-7--7-7-7-7-7-7|8--8-8-8-8-8-8|
Ab|-7--7-7-7-7-7-7|8--8-8-8-8-8-8|
Db|-7--7-7-7-7-7-7|8--8-8-8-8-8-8|
       x   x   x      x   x   x

Verse

Prechorus (x2)

Chorus (x4)
On third time;

Gtr. 2 (/w effect) (3:44)
                                       __
Eb|----------------------------------|   |
Bb|-10-11-15-11-10--10-11-15-11-10---|   |
Gb|----------------------------------|   |
Db|----------------------------------|   |
Ab|----------------------------------|   |
Db|----------------------------------|   |
                                         | REPEAT UNTIL END
Eb|--------------------------|           | 
Bb|-10-11-15-11-10--17^(18)--|           |
Gb|--------------------------|           |
Db|--------------------------|           | 
Ab|--------------------------|           |
Db|--------------------------| __________|

End on;

Gtr. 1 (3:59)

Eb|--------|   
Bb|--------|   
Gb|--------|   
Db|-8--8-8-|
Ab|-7--7-7-|   
Db|-8--8-8-|   
Tap to rate this tab
# A B C D E F G H I J K L M N O P Q R S T U V W X Y Z