Song name
# A B C D E F G H I J K L M N O P Q R S T U V W X Y Z

Soil - F-hole tab

SOiL
F-Hole
Tabbed By Spraxx888

DAFCGC Tuning
alt. Drop D(EBGDAD) But it will sound lower.


D |-----|
A |-----|
F |-----|
C |7-7--|
G |5-5--|
C |-----|

D |----------------------------------------------------------------|
A |----------------------------------------------------------------|
F |----------------------------------------------------------------|
C |-------------------10--10-1010-12-----------12-12--12-10-8-10-8-|
G |5-5-5-5-5-5-5-5-5--8---8--8-8--10--10-10-10-10-10--12-10-8-10-8-|
C |----------------------------------------------------------------|

D |------|
A |------|
F |------|
C |77777-|
G |55555-|
C |------|

D |--------------------------------------------------------------|
A |--------------------------------------------------------------|
F |--------------------------------------------------------------|
C |-------------------10-10--1010-12-----------12-12-12-10-8-10-8|
G |5-5-5-5-5-5-5-5-5--8--8---8-8--10--10-10-10-10-10-12-10-8-10-8|
C |--------------------------------------------------------------|

D |-------------------------------------------------------------------|
A |-------------------------------------------------------------------|
F |12-14-14-12-14-14-12-14-14-12-14-14-12-14-14--17~--15--------------|
C |12-12-12-12-12-12-12-12-12-12-12-12-12-12-12----------17-15-b17----|
G |-------------------------------------------------------------------|
C |-------------------------------------------------------------------|

D |----------------------------------------------------|
A |----------------------------------------------------|
F |-----------------------------------------------17~--|
C |-16-15----15----b17-16-15----15----b17-16-15--------|
G |-------17-----------------17-----------------17-----|
C |----------------------------------------------------|

D |------------------------------------|
A |------------------------------------|
F |19-19-19-19-19-19-19-19-17----------|
C |--------------------------19-b17r---|
G |---------------------------------17-|
C |------------------------------------|

D |-----------------------------------------|
A |-----------------------------------------|
F |-----------------------------------------|
C |0--------3--------5------6-7-5-3-5-3-5-3-|
G |0--------3--------5------6-7-5-3-5-3-5-3-|
C |0--------3--------5------6-7-5-3-5-3-5-3-|

D |------------------------------------------|
A |------------------------------------------|
F |------------------------------------------|
C |0--------3--------1-------3-1-1-3-1-1-3-1-|
G |0--------3--------1-------3-1-1-3-1-1-3-1-|
C |0--------3--------1-------3-1-1-3-1-1-3-1-|

D |------------------------------------------------|
A |------------------------------------------------|
F |-------------------------12-14-14-12-14-12-14-14|
C |0--------3--------5------12-12-12-12-12-12-12-12|
G |0--------3--------5-----------------------------|
C |0--------3--------5-----------------------------|

D |------------------------------------------|
A |------------------------------------------|
F |------------------------------------------|
C |0--------3--------1-------3-1-1-3-1-3-1-3-|
G |0--------3--------1-------3-1-1-3-1-3-1-3-|
C |0--------3--------1-------3-1-1-3-1-3-1-3-|

D |---------------------------------------------------------------------|
A |---------------------------------------------------------------------|
F |---------------------------------------------------------------------|
C |7---------------------10-10--1010-12--------------12-12-12-10-8-10-8-|x2
G |5--5-5-5-5-5-5-5-5-5--8--8---8-8--10--10-10-10-10-10-10-12-10-8-10-8-|
C |---------------------------------------------------------------------|


D |-----------------------------------------|
A |-----------------------------------------|
F |-----------------------------------------|
C |0--------3--------5------6-7-5-3-5-3-5-3-|
G |0--------3--------5------6-7-5-3-5-3-5-3-|
C |0--------3--------5------6-7-5-3-5-3-5-3-|

D |------------------------------------------|
A |------------------------------------------|
F |------------------------------------------|
C |0--------3--------1-------3-1-1-3-1-3-1-3-|
G |0--------3--------1-------3-1-1-3-1-3-1-3-|
C |0--------3--------1-------3-1-1-3-1-3-1-3-|

D |------------------------------------------------|
A |------------------------------------------------|
F |-------------------------12-14-14-12-14-12-14-14|
C |0--------3--------5------12-12-12-12-12-12-12-12|
G |0--------3--------5-----------------------------|
C |0--------3--------5-----------------------------|

D |------------------------------------------|
A |------------------------------------------|
F |------------------------------------------|
C |0--------3--------1-------3-1-1-3-1-3-1-3-|
G |0--------3--------1-------3-1-1-3-1-3-1-3-|
C |0--------3--------1-------3-1-1-3-1-3-1-3-|

D |---------------------------------------|
A |---------------------------------------|
F |---------------------------------------|
C |7----3----5-----0-----7----3----5------| x4
G |7----3----5-----0-----7----3----5------|
C |7----3----5-----0-----7----3----5------|

D |--------------------------------------------------------------------|
A |--------------------------------------------------------------------|
F |-------------------------------------5-7-7-5-7-7-5-9--9--9-7-5-7-5--|
C |----------------3-5-4-3-0-5--5-3-5-3-5-5-5-5-5-5-5-7--7--9-7-5-7-5--|
G |-5-4-3-0-5--3-5-----------------------------------------------------|
C |--------------------------------------------------------------------|

D |-------------------------------------------------------------|
A |-------------------------------------------------------------|
F |-12-14-14-12-14-14-12-14-14-12-14-14-12-14-14--17~--17-16-15-|
C |-12-12-12-12-12-12-12-12-12-12-12-12-12-12-12----------------|
G |-------------------------------------------------------------|
C |-------------------------------------------------------------|

D |-------------------------|
A |-------------------------|
F |------14--b17r-b17r-b17r-|
C |-17----------------------|
G |-------------------------|
C |-------------------------|

D |-----------------------------------------|
A |-----------------------------------------|
F |-----------------------------------------|
C |0--------3--------5------6-7-5-3-5-3-5-3-|
G |0--------3--------5------6-7-5-3-5-3-5-3-|
C |0--------3--------5------6-7-5-3-5-3-5-3-|

D |------------------------------------------|
A |------------------------------------------|
F |------------------------------------------|
C |0--------3--------1-------3-1-1-3-1-3-1-3-|
G |0--------3--------1-------3-1-1-3-1-3-1-3-|
C |0--------3--------1-------3-1-1-3-1-3-1-3-|

D |------------------------------------------------|
A |------------------------------------------------|
F |-------------------------12-14-14-12-14-12-14-14|
C |0--------3--------5------12-12-12-12-12-12-12-12|
G |0--------3--------5-----------------------------|
C |0--------3--------5-----------------------------|

D |------------------------------------------|
A |------------------------------------------|
F |------------------------------------------|
C |0--------3--------1-------3-1-1-3-1-3-1-3-|
G |0--------3--------1-------3-1-1-3-1-3-1-3-|
C |0--------3--------1-------3-1-1-3-1-3-1-3-|

D |---------------------------------------|
A |---------------------------------------|
F |---------------------------------------|
C |7----3----5-----0-----7----3----5------| x4
G |7----3----5-----0-----7----3----5------|
C |7----3----5-----0-----7----3----5------|

D |-----------------------------|
A |-----------------------------|
F |-----------------------------|
C |1--1-1-1-3--0--0-0-0-0-0-0-0-| x6
G |1--1-1-1-3--0--0-0-0-0-0-0-0-|
C |1--1-1-1-3--0--0-0-0-0-0-0-0-|

D |-------------|
A |-------------|
F |-------------|
C |1--1-1-1-3-0-|
G |1--1-1-1-3-0-|
C |1--1-1-1-3-0-|
Tap to rate this tab
 
# A B C D E F G H I J K L M N O P Q R S T U V W X Y Z