Song name
# A B C D E F G H I J K L M N O P Q R S T U V W X Y Z

Soil - Can You Heal Me tab

i thought i'd submit this in e, as i accidentally submitted it without being logged in, in drop d.



clean
e|--12--12---8---8---10--10--10--10-------||
b|----10--10--10--10---10--10--10--10-----||
g|----------------------------------------|| x2
d|----------------------------------------||
a|----------------------------------------||
e|----------------------------------------||


distortion
e|------------------------------------||
b|------------------------------------||
g|------------------------------------||
d|---8--------4--------13---------6---||
a|---8---x8---4---x8---13---x15---6---||
e|---6--------2--------11---------4---||

or

e|-----------------------------------||
b|-----------------------------------||
g|---------------------8-------------||
d|---8--------4--------8---x15---6---||
a|---8---x8---4---x8---6---------6---||
e|---6--------2------------------4---||

its all i've worked out.
Tap to rate this tab
# A B C D E F G H I J K L M N O P Q R S T U V W X Y Z