Guitaretab - guitar tabs
Song name
# A B C D E F G H I J K L M N O P Q R S T U V W X Y Z

Soilwork - Blind Eye Halo tab

TUNING: B E A D F# B

. - palm mute / - slide up to
 - slide down to ~ - vibrato
h - hammer on p - pull off
, - slight palm mute () - ghost note, sustained note
" - tremolo note <> - Trill

Suffixes for bend
f - full bend h - half bend
ph - pinched harmonic q - quarter bend
t - tap bend * - see comment
^ - Hold bend r - release bend
x  Stuccatto ~ - vibrato bend

Intro (play twice)
---------------------------------------------------|-second----|
---------------------------------------------------|-ending----|
---------------------------------------------------|-----------|
-4-4-----------4-4-----------4-4-----------9-9-9-9-|-9-9-9-2---| gtr 1
-------------------------------------------7-7-7-7-|-7-7-7-0---|
-----2-222-2-2-----2-222-2-2-----2-222-2-2---------|-----------|
     . ... . .     . ... . .     . ... . .

---------------------------------------------------|-second----|
---------------------------------------------------|-ending----|
---------------------------------------------------|-----------|
-------------------------------------------4-4-6-6-|-4-4-6-2---| gtr 2
-------------------------------------------2-2-4-4-|-2-2-4-0---|
---------------------------------------------------|-----------|


Riff 1a (play 3 times)
----------------------------------------------------|----------|
----------------------------------------------------|----------|
----------------------------------------------------|----------|
-4-4-----------4-4-----------4-4-----------4-4-6-6--|-4-4-6-2--| both
-------------------------------------------2-2-4-4--|-2-2-4-0--| gtrs
-----2-222-2-2-----2-222-2-2-----2-222-2-2----------|----------|
     . ... . .     . ... . .     . ... . .

Riff 1b
------------------------------------------------------------|
------------------------------------------------------------|
------------------------------------------------------------|
-4-4-----------4-4-------------------------------------9-9--|
-----------------------------2-2-----------------------7-7--|
-----2-222-2-2-----2-222-2-2-0-0-2-222-2-2-2-222-2-2-2------|
     . ... . .     . ... . .     . ... . . . ... . . .
[ Tab from: http://www.guitaretab.com/s/soilwork/109931.html ]
------------------------------------------------------------|
------------------------------------------------------------|
------------------------------------------------------------|
-7-7-----------7-7-------------------------------------9-9--|
-----------------------------2-2-----------------------7-7--|
-----2-222-2-2-----2-222-2-2-0-0-2-222-2-2-2-222-2-2-2------|
     . ... . .     . ... . .     . ... . . . ... . . .

Fill 1
-------------------------------------------------------------|
-------------------------------------------------------------|
-------------------------------------------------------------|
---------6-5-4---------6-5-4---------6-5-4-------------------|
---------432---------432---------432---------7-7-------------|
-0-0-0-0-------0-0-0-0-------0-0-0-0-------0-0-0-0-5-5-------|
 . . . .       . . . .       . . . .       . . . .

Riff 2  very fast
------------------------------------------------------------|
------------------------------------------------------------|
------------------------------------------------------------|
---------------9-8-7-----------9-8-7-----------9-8-7--------|
-----------------------------------------------------5-5-4--|
-0-2-0-2-0-2-0-------0-2-0-2-0-------0-2-0-2-0-------3-3-2--|

Riff 1a x 1
Riff 1b x 1
Riff 2 x 2
Riff 1a x 1
Riff 1b x 1
Riff 2 x 4

Riff 3a
-------------------------------------------------------------|
-------------------------------------------------------------|
-------------------------------------------------------------|
-------------------------------------------------------------|
-4------7----7--7---4------7----7----7-9---------------------|
-2--2-2-5--3-5--5--2--2-2-5--3-5--3-5/7----------------------|
    . .    .           . .    .    .

Riff 3b
-------------------------------------------------------------|
-------------------------------------------------------------|
-------------------------------------------------------------|
--------------------4------4-4-------------------------------|
-4------7----7--7---2--2-2-2-2-------------------------------|
-2--2-2-5--3-5--5---------------3-3-3-3----------------------|
    . .    .           . .       . . . .

Riff 3a x 1
Riff 3b x 1

Under solo:
Riff 3a x 1
Riff 3b x 1
Riff 3a x 1
Riff 3b x 1


Riff 2 x 6

End
-----
-----
-----
-----
-4---
-2---
Related for Blind Eye Halo tab