Song name
# A B C D E F G H I J K L M N O P Q R S T U V W X Y Z

Soilwork - As We Speak tab

Band:  Soilwork
Album: Natural Born Chaos
Song:  As We Speak
-----KEY------:
.  - palm mute           /  - slide up to
\  - slide down to       ~  - vibrato
h  - hammer on           b  - Bend
p  - pull off            Suffixes for bend
t  - tap                 f  - full bend    h - half bend
ph - pinched harmonic    q  - quarter bend t - tap bend
*  - see comment         ^  - Hold bend    r release bend
x  - Stuccatto           ~  - vibrato bend
,  - slight palm mute    () - ghost note, sustained note
"  - tremolo note        <> - Trill

Tunning b G D A E B

I tabbed this out as best as I can, but its not quite perfect, no harminised
bit ...sorry...good tabbing soilwork fans.

1st Lead - FRENNING

|----------------------------|-------------------------------------------|
|----------------------------|-------------11-12-14-15-14-12-14b15^14~~~~|
|---/3----4/6~---6/7^--6~~~~~|----10-11-13-------------------------------|
|----------------------------|-------------------------------------------|
|----------------------------|-------------------------------------------|
|----------------------------|-------------------------------------------|


|----------------------------------------|
|12p11-------------------11------12------|
|------11--------9b11^11----9-11----9-11-|
|---------11-8---------------------------|
|--------------9-------------------------|
|----------------------------------------|

|----------------------------------------------------------|------------|
|11------12------11------11----11---------10----10---------|------------|
|---9-11----9-11----9-11----11----------9----11----------9-|9b11^~~~~~~~|
|---------------------------------11-12------------11-12---|------------|
|----------------------------------------------------------|------------|
|----------------------------------------------------------|------------|


2nd Lead - WICHERS

|7h9---7---6---7---6------------|--19b21b19b21^------19-18-------|
|--------------------7---9---11~|~~------------------------19----|
|-------------------------------|--------------------------------|
|-------------------------------|-----------------------------16-|
|-------------------------------|--------------------------------|
|-------------------------------|--------------------------------|

 
|16----16b18^16-------------------------|
|---------------------------------------|
|---16----------18~~~-------------------|
|------------------------------5~~~~----|
|-----------------------222222(5)---2-2-|
|-----------------------000000(3)---0-0-|


thats it....easy as pie...
Tap to rate this tab
# A B C D E F G H I J K L M N O P Q R S T U V W X Y Z