Song name
# A B C D E F G H I J K L M N O P Q R S T U V W X Y Z

Soilwork - Overload tab

tuning Drop d full step down

Inro/Main riff
|---------------------------------------------|
|---------------------------------------------|
|---------------------------------------------|
|---3h5-5--5-3--3-3h5-5--5-3--3-3h5-5--5-3---3|
|---3h5-5--5-3--3-3h5-5--5-3--3-3h5-5--5-3---3|
|---3h5-5--5-3--3-3h5-5--5-3--3-3h5-5--5-3---3|

|-------------------|---------|
|-------------------|8888-6666|
|-------------------|7777-5555|
|--0h3--3-3-0h3--3-3|5555-3333|
|--0h3--3-3-0h3--3-3|5555-3333|
|--0h3--3-3-0h3--3-3|5555-3333|

|--------------------------|--------------------------|---------|
|--------------------------|--------------------------|8888-6666|
|--------------------------|--------------------------|7777-5555|
|--3h5-5----3h5-5/0-----3h5|--7--5-7/8-7-8/10-10-10/12|5555-3333|
|--3h5-5----3h5-5/0-----3h5|--------------------------|5555-3333|
|--3h5-5----3h5-5/0-----3h5|--------------------------|5555-3333|

|-|
|-|
|5|
|5|
|3|
|-|

|----------------------------------------------------------|
|----------------------------------------------------------|
|----------------------------------------------------------|
|5555-5555-55555555-5555-7777-1111-1111-11111111-1111-3333-|
|5555-5555-55555555-5555-7777-1111-1111-11111111-1111-3333-|
|5555-5555-55555555-5555-7777-1111-1111-11111111-1111-3333-|

---------------------------------------------------------|
---------------------------------------------------------|
---------------------------------------------------------|
5555-5555-55555555-5555-7777-1111-1111-11113333-3333-3333|
5555-5555-55555555-5555-7777-1111-1111-11113333-3333-3333|
5555-5555-55555555-5555-7777-1111-1111-11113333-3333-3333|
Interlude
|------------------------------------------------------------------------------------------|
|------------------------------------------------------------------------------------------|
|3-----------------------------------------------------2-----------------------------------|
|3-----------------------------------------------------2-----------------------------------|
|1-----------------------------------------------------0-----------------------------------|
|----------320-320-32---320-32000(play this riff twice)-------------320-320-32---320-32000-|
Solo
|--------------------------15b(16)-15b(17)gr-15p14-------------------------------------------|
|-------------------------------------------------15-----------------------------------------|
|-------------10b(12)f(10)--------------------------14--11b(12)f(11)-------------------------|
|--------------------------------------------------------------------14b(15)-15-12---14b(15--|
|--8-10-8---8--------------------------------------------------------------------------------|
|--------------------------------------------------------------------------------------------|

---------------------|
----13b(15)----------|
---------------------|
-15---------12h14-12-|
---------------------|
---------------------|
Tap to rate this tab
 
# A B C D E F G H I J K L M N O P Q R S T U V W X Y Z