Song name
# A B C D E F G H I J K L M N O P Q R S T U V W X Y Z

Soilwork - Distortion Sleep tab

-------------------------------------------------------------------------------
			     distortion sleep - soilwork
-------------------------------------------------------------------------------
Tabbed by:#81 cody #81
Email:codyrobinson81@yahoo.com

Tuning:B
                    intro and chorus
|-----------------------------------------------------------------------------|
|-----------------------------------------------------------------------------|
|-----------------------------------------------------------------------------|
|----------------------------------------7-7-7-7-7-7-7-7-7-7------------------|
|3-3-3-3-3-3-3-3-3-3--7-7-7-7-7-7-7-7-7--5-5-5-5-5-5-5-5-5-5------------------|
|3-3-3-3-3-3-3-3-3-3--7-7-7-7-7-7-7-7-7---------------------------------------|

|---------------------------------------------------------------------------|
|---------------------------------------------------------------------------|
|---------------------------------------------------------------------------|
|---------------------------------------------------------------------------|
|3-3-3-3-3-3-3-3-3-3--7-7-7-7-7-7-7-7-7--8-8-8-8-8-8-8-8-8-8----------------|
|3-3-3-3-3-3-3-3-3-3--7-7-7-7-7-7-7-7-7--8-8-8-8-8-8-8-8-8-8----------------|

idk  if thats the correct # of times to hit the strings so juss listen to the song


verses
|-----------------------------------------------------------------------------|
|-----------------------------------------------------------------------------|
|-----------------------------------------------------------------------------|
|-----------------------------------------------------------------------------|
|-----------------------------------------------------------------------------|
|-3-0---3/5--0-3/5-0--5/3--0--3/5-0--5/3-2--2--3-0--3/5--0--------------------|


the verse basicly just repeats   and this also is my first tab so cut me sum slack   iv 
not got the solo yet


| /  slide up
| \  slide down
| h  hammer-on
| p  pull-off
| ~  vibrato
| +  harmonic
| x  Mute note
===============================================================================
Tap to rate this tab
 
# A B C D E F G H I J K L M N O P Q R S T U V W X Y Z