Song name
# A B C D E F G H I J K L M N O P Q R S T U V W X Y Z

Soilwork - The Bringer tab

Help us improve GuitareTab! Take a short survey!
E|-----------------------------------------------------|
D|---------3-------------------------------------------|
G|---4-------4-----6-6h7p6-4---4---------6--7-6--------|
B|-----4-------4-------------6---2\5-4h5--------9-8----|
A|-2-----2-------2-------------------------------------|
E|-----------------------------------------------------|

E|-----------------------------------------------------|
D|---------3-------------------------------------------|
G|---4-------4-----6-6h7p6-4---4--------4-----4--------|
B|-----4-------4-------------6---2\5---0-0---0-0---0h5-|
A|-2-----2-------2--------------------0---0-0---0-0----|
E|-----------------------------------3-----2-----0-----|

E|-----------------------------------------------------|
D|---------3-------------------------------------3-----|
G|---4-------4-----6-6h7p6-4---4---------6-----0-------|
B|-----4-------4-------------6---2\5-4h5-----0---------|
A|-2-----2-------2-------------------------2-----------|
E|-----------------------------------------------------|

E|-----------------------------------------------------|
D|---------3-------------------------------------------|
G|---4-------4-----6-6h7p6-4---4--------4-----4--------|
B|-----4-------4-------------6---2\5---0-0---0-0---0h5-|
A|-2-----2-------2--------------------0---0-0---0-0----|
E|-----------------------------------3-----2-----0-----|
Related for The Bringer tab