Song name
# A B C D E F G H I J K L M N O P Q R S T U V W X Y Z

Soilwork - Song Of The Damned tab

Hey whats up.. this is my first tab but i think i got it pretty good. All
of the other tabs i found for this song were not so accurate so i made one myself.

Created by: LarzuK
Tuning: Drop D(CGCFAD)

D|-------3--------1-------------------1--------3--------1-------------------1-|
A|----1--------1--------1--4p3-----1--------1--------1--------1--4p3-----1----|
F|-3--------3--------3----------3--------3--------3--------3----------3-------|
C|----------------------------------------------------------------------------|
G|----------------------------------------------------------------------------|
C|----------------------------------------------------------------------------|

 |-4p3-----4p3---------------------------------------------------------------|
 |------4-------1-------1-----4----------------------------------------------|
 |-----------------3--3---h3-------------------------------------------------|
 |---------------------------------------------------------------------------|
 |---------------------------------------------------------------------------|
 |---------------------------------------------------------------------------|
Tap to rate this tab
# A B C D E F G H I J K L M N O P Q R S T U V W X Y Z