Song name
# A B C D E F G H I J K L M N O P Q R S T U V W X Y Z

Soja - Here I Am tab

     Here I Am - Soja
-------------------------------------------------------------------------------
Tabbed by:Cody
Email:

Tuning:Standard

e|---------------------------------------------------------------------|
B|---------------------7-----------------------------------------------|
G|---7---7---9-7-----7---7---7-77h9-9-7-6------------------------------|
D|-9---9---9-----9-9-------9--------------9----------------------------|
A|---------------------------------------------------------------------|
E|---------------------------------------------------------------------|

e|---------------------------------------------------------------------|
B|-----------10-8-------7----------------------------------------------|
G|---7---7--------7---7---7---7-7h9-9-7-6------------------------------|
D|-9---9---9--------9-------9-------------9----------------------------|
A|---------------------------------------------------------------------|
E|---------------------------------------------------------------------|

Chords: Bm x24432, G 355433, D x57775, A 577655 .. Played throughout entire song

Bm                 G           D          A
She calls me when I'm in town, I pretend I'm not around
Tap to rate this tab
# A B C D E F G H I J K L M N O P Q R S T U V W X Y Z