Song name
# A B C D E F G H I J K L M N O P Q R S T U V W X Y Z

Soja - Open My Eyes tab

----------------------------------------------------------------------------
			     OPEN MY EYES - SOJA
----------------------------------------------------------------------------

Tuning:EADGBe

Intro
e|-2h3~--3-3-3~---2h3~--3-3-2~---------------------------------------------|
B|-------------------------------------------------------------------------|
G|-------------------------------------------------------------------------|
D|-------------------------------------------------------------------------|
A|-------------------------------------------------------------------------|
E|-------------------------------------------------------------------------|

This is the rest of the song.
e|x-7-x-7-x-8--x-8--x-7-x-7-x-5-x-5-----------------------------------------|
B|x-8-x-8-x-8--x-8--x-8-x-8-x-7-x-7-----------------------------------------|
G|x-9-x-9-x-9--x-9--x-9-x-9-x-7-x-7-----------------------------------------|
D|x-9-x-9-x-10-x-10-x-9-x-9-x-7-x-7-----------------------------------------|
A|x-7-x-7-x-10-x-10-x-7-x-7-x-5-x-5-----------------------------------------|
E|--------x-8--x-8----------------------------------------------------------|
Tap to rate this tab
 
# A B C D E F G H I J K L M N O P Q R S T U V W X Y Z