Song name
# A B C D E F G H I J K L M N O P Q R S T U V W X Y Z

Soja - Here I Am tab

Standard Tuning

e------------------------------------------------|
b-------------------------7--------------7-------|
g----7---7-7-7/9--7-----7---7---7-7-7h9----7-6/7-|
d--9---9------------9-9-------7------------------|
a------------------------------------------------|
E------------------------------------------------|

e----------------------------------------------|
b------------10-8-------7--------------7-------|
g----7---7-7------7---7---7---7-7-7h9----7-6/7-|
d--9---9------------9-------7------------------|
a----------------------------------------------|
E----------------------------------------------|
Tap to rate this tab
# A B C D E F G H I J K L M N O P Q R S T U V W X Y Z