Song name
# A B C D E F G H I J K L M N O P Q R S T U V W X Y Z

Soja - Dont Forget tab

e|------5-----------3-----------3--------------------------------------------|
B|------5-----------5-----------3--------------------------------------------|
G|------6-----------5-----------3--------------------------------------------|
D|------7-----------5-----------5--------------------------------------------|
A|------7-----------3-----------5--------------------------------------------|
E|------5-----------------------3--------------------------------------------|

e|---------------------------------------------------------------------------|
B|---------------------------------------------------------------------------|
G|---------------------------------------------------------------------------|
D|---------------------------------------------------------------------------|
A|-----0---5/7777------0---5/7777------3---5/7-5-3-2----5/7-5-3-0------------|
E|---0---------------0----------------0--------------3-----------------------|

e|---------------------------------------------------------------------------|
B|---------------------------------------------------------------------------|
G|----------------------------------------------------------5-7/9-7-5--------|
D|------------------------------------------------------5-7-----------7------|
A|-----5/7777------0---5/7777------3---5/7-5-3-2----5/7----------------------|
E|---------------0---------------0---------------3---------------------------|



************************************

| /   slide up
| \   slide down
| h   hammer-on
| p   pull-off
| ~   vibrato
| +   harmonic
| x   Mute note
| b   Bend
| pb  Pre-bend
| br  Bend release
| pbr Pre-bend release
| brb Bend release bend

************************************
Tap to rate this tab
# A B C D E F G H I J K L M N O P Q R S T U V W X Y Z