Soja - Here I Am tab

Great Song.


e-------------------------------------------------|
b-------------------------7------------7----------|
g----7--7--7--7h9-7-----7---7--7-7-7h9---7-6------|
d--9---9------------9-9-------9-------------------|
a-------------------------------------------------|
E-------------------------------------------------|

e--------------------------------------------------------|
b--------------10--------------7---------------7-----7---|
g----7--7--7-------12---7----7---7----7-7--7h9---7h9---6-|
d--9---9-------------------9--------9--------------------|
a--------------------------------------------------------|
E--------------------------------------------------------|

e-------------------------------------------------|
b-------------------------7------------7----------|
g----7--7--7--7h9-7-----7---7--7-7-7h9---7-6------|
d--9---9------------9-9-------9-------------------|
a-------------------------------------------------|
E-------------------------------------------------|

e--------------------------------------------------------|
b--------------10--------------7-------------------------|
g----7--7--7-------12---7----7---7----7-7--7b--7h9p7--6--|
d--9---9-------------------9--------9--------------------|
a--------------------------------------------------------|
E--------------------------------------------------------|


Chords: Bm (799777), G (355433), D (x57775,) A (577655)
Tap to rate this tab
 
# A B C D E F G H I J K L M N O P Q R S T U V W X Y Z