Song name
# A B C D E F G H I J K L M N O P Q R S T U V W X Y Z

Soja - Cant Tell Me tab

You and Me-SOJA (Credit to my friend Will who started me off)
Please let me know if there are corrections/or a better sounding way. THX

intro/verse break/& outro (aka: the violin sounding part)


e|-----0--7--5--3-|-0h3----|0--7--5--3-|3--4--5------------------|
B|----------------|-------3|-----------|-------------------------|
G|----------------|--------|-----------|-------------------------|
D|----------------|--------|-----------|-------------------------|
A|----------------|--------|-----------|-------------------------|
E|----------------|--------|-----------|-------------------------|


e|0--12--10--9--10--9--7--5--5h6--7|-----0--7--5--3-|-0h3----|
B|---------------------------------|----------------|-------3|
G|---------------------------------|----------------|--------|
D|---------------------------------|----------------|--------|
A|---------------------------------|----------------|--------|
E|---------------------------------|----------------|--------|
Tap to rate this tab
 
# A B C D E F G H I J K L M N O P Q R S T U V W X Y Z