Song name
# A B C D E F G H I J K L M N O P Q R S T U V W X Y Z

Soja - You And Me tab

Intro/Solo (strings)

Chords: C-G-D-D

e---------------------------|
B----12-10------------------|
G--9-------12r--11h12-------|
D---------------------12r---|
A---------------------------|
E---------------------------|

e---------------------------|
B----12-10------------------|
G--9-------12r--11h12s15r---|
D---------------------------|
A---------------------------|
E---------------------------|

e----10-8-7-8-7h8-----------|
B-----------------8-7h8s10--|
G--9------------------------|
D---------------------------|
A---------------------------|
E---------------------------|

e---------------------------|
B----12-10------------------|
G--9-------12r--11h12-------|
D---------------------12r---|
A---------------------------|
E---------------------------|


Verse Chords: C-G-D-D

listen to the song for the strumming pattern

h = hammer
r = ring
s = slide

this is my first tab, you can play with the scale of this intro/solo for your own 
personal version/cover of this song. enjoy!
Tap to rate this tab
 
# A B C D E F G H I J K L M N O P Q R S T U V W X Y Z