Song name
# A B C D E F G H I J K L M N O P Q R S T U V W X Y Z

Soja - Dont Forget chords

Highlighted       Show chord diagrams
Intro: Am  C  Dm  G
E|----------------------------------------------------------------|
B|----------------------------------------------------------------|
G|----------------------------------------------------------------|
D|----------------------------------------------------------------|
A|-------0---0---5--7---7---7-----------0---0---5--7---7---7---7--|
E|---0------------------------------0-----------------------------|

E|----------------------------------------------------------------|
B|----------------------------------------------------------------|
G|----------------------------------------------------------------|
D|----------------------------------------------------------------|
A|-------0---0----5--7--5---3---2-------5---7----5---3----2---0---|
E|---0------------------------------3-----------------------------|

Am
It wasn't you, its just the way we
C
Rool the dice, if these
G
Cards would fall right
Am                                           C
It wasn't you, it's just the timing and the place that's wrong
       G
And something is gone, but

Am          Dm
Don't you forget about the life
           C
That we talked about you
 G                    Am
Cruise and you're forgetting:
Am
Table's got a leg to stand on,
C
A life to hang on, it's
G              Am
You that you decieve

Am
It wasn't you
                     C
Who put yourself in all these
G
Game, these neverending ways, yeah...
Am
I know it's not you-
C
Cuz i can feel the fire
G
Blaze those same

Light rains, yeah

C
It wasn't you
               C
Cuz noone sees them selves
G
At all the same as
Am
Anybody else and
C
It wasn't you
G
Cuz every little thing
Am
Has changed, but
C
I know its never too late
G
We all need some legs to stand on
Tap to rate this tab
 
# A B C D E F G H I J K L M N O P Q R S T U V W X Y Z