Song name
# A B C D E F G H I J K L M N O P Q R S T U V W X Y Z

Soja - Not Done Yet tab

-------------------------------------------------------------------------------
                             NOT DONE YET - Soilders of Jah Army (SOJA)
-------------------------------------------------------------------------------
Tabbed by: LostLegion
E-mail: cm.duffy@hotmail.com

Tuning: Standard [EADGBe]

The chords are Bm G  D  A 

INTRO:

e|---------------------------------------------------------------------------|
B|----------10-8~~~-------8/10-10-8-7---------7-7----------------------------|
G|------7------------------------------7~~~-------9-7-6---9b(11)br-9b(11)br--|
D|---9-----------------------------------------------------------------------|
A|---------------------------------------------------------------------------|
E|---------------------------------------------------------------------------|

e|---------------------------------------------------------------------------|
B|------------------10-8~~~----8/10-10-8-7---------7-7-----------------------|
G|--7------------7-------------------------7~~~--------9-7-6-----------------|
D|----9~~~----9-------------------------------------------------7-7/9--------|
A|---------------------------------------------------------------------------|
E|---------------------------------------------------------------------------|

LICK:
 This can be heard at 0:49. It can also be heard in the chorus.

e|---------------------------------------------------------------------------|
B|-10--10/12\10--REPEAT-3-MORE-TIMES---10------------10--10/12\10------------|
G|---11----------------------------------11-11/12------11--------------------|
D|---------------------------------------------------------------------------|
A|---------------------------------------------------------------------------|
E|---------------------------------------------------------------------------|

e|---------------------------------------------------------------------------|
B|-10------------------------------------------------------------------------|
G|---11-11/12---9-10---------------------------------------------------------|
D|---------------------------------------------------------------------------|
A|---------------------------------------------------------------------------|
E|---------------------------------------------------------------------------|

At 2:06 repeat the lick again

Then at 3:39 you do the opening riff.

And at 4:03 you finish off with this light-palm-muted bit using alternate picking:

e|---------------------------------------------------------------------------|
B|--12--12-12-12-12-12-12-12-12-12-10--10--12--12-12-12-12-12-12-10----------|
G|-----------------------------------11----------------------------11--------|
D|---------------------------------------------------------------------------|
A|---------------------------------------------------------------------------|
E|---------------------------------------------------------------------------|




************************************

| /   slide up
| \   slide down
| ~   vibrato
| b   Bend
| pb  Pre-bend
| br  Bend release

************************************
Tap to rate this tab
# A B C D E F G H I J K L M N O P Q R S T U V W X Y Z