Song name
# A B C D E F G H I J K L M N O P Q R S T U V W X Y Z

Soja - Strength To Survive tab

-----------------------------------------------------------------------
                             Strength to Survive - SOJA
-----------------------------------------------------------------------
Tabbed by:Chase

Standard Tuning:EADGBE

This is my rendition of Strength to Survive by SOJA.
Please 5 star if you would like to see more complete versions of the songs!

Chords used: Dm, C, Bb

     Dm(D minor)     C       Bb(B flat)
e|---5---------------------------------------------------------|
B|---6---------------5-------3---------------------------------|
G|---7---------------5-------3---------------------------------|
D|---7---------------5-------3---------------------------------|
A|---5---------------3-------1---------------------------------|
E|-------------------------------------------------------------|

Lead Guitar (trumpet)
e|-------------------------------------------------------------|
B|----66-55-6b----66-55-65----66-55-6----5--3-3----------------|
G|--7----------77---------7--------------5--3-3----------------|
D|--7----------77----------------------5-5--3-3----------------|
A|-------------55----------------------3----1-1----------------|
E|-------------------------------------------------------------|

Verses

      Dm      Dm
    (      Palm Mute      )
e|---5---5---5---5---------------------------------------------|
B|---6-5-6---6-5-6---------------------------------------------|
G|---7-5-7---7-5-7---7-7-7-------------------------------------|
D|-------------------8-7-8-------------------------------------|
A|-------------------------------------------------------------|
E|-------------------------------------------------------------|


************************************

| /   slide up
| \   slide down
| h   hammer-on
| p   pull-off
| ~   vibrato
| +   harmonic
| x   Mute note
| b   Bend
| pb  Pre-bend
| br  Bend release
| pbr Pre-bend release
| brb Bend release bend

************************************
Tap to rate this tab
 
# A B C D E F G H I J K L M N O P Q R S T U V W X Y Z