Song name
# A B C D E F G H I J K L M N O P Q R S T U V W X Y Z

Soja - I Dont Wanna Wait tab

=========================================
Artist: Soldiers of Jah Army
Song: I Don't Wanna Wait
Tabbed by: Cifra Club
=========================================

E|------------------------------------------------------------|
B|------------------------------------------------------------|
G|------------------------------------------------------------|
D|----------0--0--4--2---2------------------------------------|
A|------0--------------4---4--2-------------------------------|
E|--2-4---0---------------------------------------------------|

E|------------------------------------------------------------|
B|------------------------------------------------------------|
G|------------------------------------------------------------|
D|----------0--0--4--2--4s7-6~--------------------------------|
A|------0-----------------------------------------------------|
E|--2-4---0---------------------------------------------------|

Intro:

E|--2-2-2-x-2-2-2-2-2-2-x-2-2-2-------x-------------x------------------------|
B|--2-2-2-x-2-2-2-3-3-3-x-3-3-3-2-2-2-x-2-2-2-------x------------------------|
G|--2-2-2-x-2-2-2-2-2-2-x-2-2-2-2-2-2-x-2-2-2-1-1-1-x-1-1-1------------------|
D|--4-4-4-x-4-4-2-------x-------2-2-2-x-2-2-2-2-2-2-x-2-2-2------------------|
A|--4-4-4-x-4-4-4-------x-------------x-------2-2-2-x-2-2-2------------------|
E|--2-2-2-x-2-2-4-------x-------------x-------------x------------------------|

          F#m  D  A  E
I don't wanna wait
              F#m  D  A  E
I don't wanna wait
              F#m  D  A  E
I don't wanna wait
              F#m  D  A  E
I don't wanna wait

F#m
They say "way back when knew how", but
D
there's nothing telling you now just to
A
do your right and not your wrong, when
E
wrong is easy, and right is hard, and

F#m
We've all got our weaknesses
D
and only you know what yours is, but
A
your "tomorrows" are all that seems to
E
escape from your lips...

                  F#m       D
But I don't wanna wait... today
A                        E                    F#m       D
for something that might never ever show its face... I can't
A                   E                     F#m      D
I promise that I've heard to much already yeah... to me
A               E                            F#m          D
it seems ridiculous to trust in all of your games... you play
A                            E
theres one night, one world, one chance and...

              F#m  D  A  E
I don't wanna wait
              F#m  D  A  E
I don't wanna wait
             F#m  D  A  E
I don't wanna wait
              F#m  D  A  E
I don't wanna wait

F#m
Moving forward to right now
D
a government that let you down
A
a racist leader no one trusted and
E7
an army that's bigger than us and

F#m
a poverty on a global scale
D
A fragile world with fragile air and
A
fragile water I'm sure they'll put
E
off till tomorrow...

                 F#m       D
But I don't wanna wait... today
A                        E                    F#m       D
for something that might never ever show its face... I can't
A                   E                     F#m      D
I promise that I've heard to much already yeah... to me
A               E                            F#m          D
it seems ridiculous to trust in all of your games... you play
A                            E
theres one night, one world, one chance and...

              F#m  D  A  E
I don't wanna wait
              F#m  D  A  E
I don't wanna wait
              F#m   D   A   E
I don't wanna wait for you and your games (no I don't no oh no)
              F#m   D   A   E
I just can't wait...wait...I just can't

F#m
I'm skipping forward to the ending, to that
D
point or two impeding to that
A
moment that all that stops that
E
one day when that bottom drops

F#m
And we remember our voices
D
had a chance yea we had our choice but
A
time is a luxury we as a people we
E
might no longer afford

                  F#m       D
But I don't wanna wait... today
A                        E                    F#m       D
for something that might never ever show its face... I can't
A                   E                     F#m      D
I promise that I've heard to much already yeah... to me
A               E                            F#m          D
it seems ridiculous to trust in all of your games... you play
A                            E
theres one night, one world, one chance and...

               F#m   D   A   E
I don't wanna wait... there's not enough of time so
              F#m   D   A   E
I don't wanna wait... you know Ive got a lot on my mind so
              F#m   D   A   E
I don't wanna wait... have to reach the end of the line so
             F#m   D   A   E
I don't wanna wait... no im not fine
            F#m   D   A   E
Don't wanna wait, don't wanna wait, don't wanna wait, don't wanna... it's not for me, 
not for me, it's not for me no
        F#m   D   A   E
I can't wait, don't wanna wait, don't wanna wait, don't wanna... it's not for me, not 
for me now
            F#m   D   A   E
Don't wanna wait, don't wanna wait, don't wanna... don't wanna wait, don't wanna it's 
not for me and I know
        F#m   D   A   E
I canīt wait... and I don't wanna wait.

( F#m   D   A   E )
Tap to rate this tab
# A B C D E F G H I J K L M N O P Q R S T U V W X Y Z