Song name
# A B C D E F G H I J K L M N O P Q R S T U V W X Y Z

Soja - Strength To Survive tab

SOJA likes to mix it up when they play it live, but here's the basic tab

Intro:
e|---------------------------------------------------------------|
B|---------------------------------------------------------------|
G|--10-10-9-9-10--10-10-9-9-10-9-----10-10-9-9-10-----9----------|
D|-------------------------------12---------------~10---12-------|
A|---------------------------------------------------------------|
E|---------------------------------------------------------------|

e|---------------------------------------------------------------|
B|--10-10-8-8-10--10-10-8-8b--------13-10-13-10-13---------------|
G|---------------------------10------------------------9---------|
D|------------------------------12-----------------~10---12------|
A|---------------------------------------------------------------|
E|---------------------------------------------------------------|

Verse Chords:
    Dm          C      A#
e|--5---5-------3------1-----------------------------------------|
B|--6---6-------5------3-----------------------------------------|
G|--7---7-------5------3-----------------------------------------|
D|--7---7-------5------3-----------------------------------------|
A|--5---5-------3------1-----------------------------------------|
E|--5---5-------3------1-----------------------------------------|

Chorus Chords:
    A#      C       Dm      C
e|--1---1---3---3---5---5---3---3--------------------------------|
B|--3---3---5---5---6---6---5---5--------------------------------|
G|--3---3---5---5---7---7---5---5--------------------------------|
D|--3---3---5---5---7---7---5---5--------------------------------|
A|--1---1---3---3---5---5---3---3--------------------------------|
E|--1---1---3---3---5---5---3---3--------------------------------|
Tap to rate this tab
# A B C D E F G H I J K L M N O P Q R S T U V W X Y Z