Song name
# A B C D E F G H I J K L M N O P Q R S T U V W X Y Z

Solange - I Decided tab

Beyonces Sister - http://www.youtube.com/watch?v=pD8wzrBLrLI

Artist: Solange
Song: I Decided
Album: Sol-Angel and the Hadley St. Dreams


transcribed by jam9383@yahoo.com

I was really hoping that someone would post this or I would find it on musicnotes but
in never happened so I decided to transcribe even though it is really piano.

The higher registers non-ocatave are played stacatto.


  F                                Bb
e------------3-----------------------------------3----------------|
B-----4--6---4------4----4---------------4---6---4------4---4-----|
G-----3--5----------5----5---------------3---5----------5---5-----|
D-3--------------------------------8------------------------------|
A-----------------------------------------------------------------|
E-1--------------------------------6------------------------------|

   Eb                              C
e-----------------------------------------------------------------|
B------4-----------------------------------4----------------------|
G--8---3--5--------5----5------------------3--5----------5---5----|
D---------5--------5----5----------10---------5----------5---5----|
A--6--------------------------------------------------------------|
E----------------------------------8------------------------------|


These chords and piano figures are repeated throughout


comments or corrections contact me
Tap to rate this tab
# A B C D E F G H I J K L M N O P Q R S T U V W X Y Z